311

311 - Sever guitar tab

Tabbed by p-nutt kodie5@hotmail.com.

ass tab:sever

by:311

tab by :p-nutt

album:sound system (1999)

this is only my 2nd tab but the 1st 1 was tizzite!!!!!

here we gizz-o.

g:----------------------------------------------------|

d:----------------------------------------------------|

a:-------------------------------------------------4--|

e:-----------------------2-2-2-2-2-2-4-4-0-4-4-4-4---4|

b:0-0-0-0-0-0-3-3-3-3-3-3-----------------------------|x4

g:----3---------1----

d:--3---3-----1---1--

a:3-------3-1-------1

e:-------------------

b:-------------------x3

g:---------------|

d:---------------|

a:---------------|

e:--------1-1-1-1|

b:1-1-1-1--------|(muted)

g:-------------------------|

d:-------------------------|

a:----5---3---7-8-5-3-//9-9|

e:5-5---5---3--------------|

b:-------------------------|

start over!

when you get done the 2nd time around start here

g:-----------------------------------------|

d:----7-----9-10-9-12-11-----14-15-14------|

a:--8---8-7---------------12---------------|

e:5------------------------------------10-9|

b:-----------------------------------------|

after 4 and a half times speed up listen to song to find out.

end:

g:-----|the 6th time drop down to

d:3----|the 3,4,5th string.

a:--3--|

e:----3|

b:-----|

Get this song at:  amazon.com

Share your thoughts

0 Comments found