311

311 - Peaceful Revolution guitar tab

'Peaceful Revolutiom'

Performed by 311

From the album "Dammit!" on What Have You Records

Music by: N. Hexum

Lyrics by: N. Hexum

(c) 1991 Allegiance Music/Hydroponic Music BMI

---------------

Tabbed by: Adam Wood (adam311@hotmail.com)

Michael Slusarz (slusarz@ucsu.colorado.edu)

Lyric Help by: Matthew Loveless (mattewnot@home.com)

The 311 Guitar Archive -- http://chromosome.colorado.edu/311archive/

Intro/Riff 1 (Clean):

=====================

Em Em7 Em A Asus4 A

1:-0-0--3-3-3--0--0-0--0-0-0-0--0-0-

2:-0-0--3-3-3--0--2-2--3-3-3-3--2-2-

3:-0-0--0-0-0--0--2-2--2-2-2-2--2-2-

4:-2-2--2-2-2--2--2-2--2-2-2-2--2-2-

5:-2-2--2-2-2--2--0-0--0-0-0-0--0-0-

6:-0-0--0-0-0--0--------------------

Fill:

=====

G5

1:---------------

2:---------------

3:---------------

4:---------------

5:-2-2---2-2---2-

6:-3-3---3-3---3-

Verse/Riff 2 (Clean):

=====================

Em A

1:-0-0-0-0-0-0--0-0-0-0-0-0-

2:-0-0-0-0-0-0--2-2-2-2-2-2-

3:-0-0-0-0-0-0--2-2-2-2-2-2-

4:-2-2-2-2-2-2--2-2-2-2-2-2-

5:-2-2-2-2-2-2--0-0-0-0-0-0-

6:-0-0-0-0-0-0--------------

Chorus/Riff 3 (Clean):

======================

G D Dsus4 D G D Bm/F#

1:-3--3--3--3--2-2--3-3-3-3--2-2--3--3--3--3--2-2--2-

2:-3--3--3--3--3-3--3-3-3-3--3-3--3--3--3--3--3-3--3-

3:-0--0--0--0--2-2--2-2-2-2--2-2--0--0--0--0--2-2--4-

4:-0--0--0--0--0-0--0-0-0-0--0-0--0--0--0--0--0-0--4-

5:-2--2--2--2---------------------2--2--2--2-------2-

6:-3--3--3--3---------------------3--3--3--3-------2-

Lyrics/Song Structure:

======================

---> Play Riff 1 (x4)

---> Play Fill

---> Play Riff 2 over:

It's good to be alive in the peaceful revolution

An honor to observe the beautiful solution

I tip my head to we the people in order to form

A more perfect world, this shall come to pass

---> Play Riff 3 over:

The begining of the end

None of ingnorance that once could stand

The tyrant to power, his days are done

In the worldwide revolution

---> Play Riff 1 over:

Yeah the peaceful revolution

---> Play Riff 1 (x3)

---> Play Fill

---> Play Riff 2 over:

All around this small world now the people demand to listen

These truths self evident a philosophical evolution

As the old die out, the young see a better way

Human rights guaranteed to all without regard to race i say

---> Play Riff 3 over:

The begining of the end

Now the people hope we will not bend

The tyrant to power, his days are done

In the worldwide revolution

---> Play Riff 1 over:

Yeah the peaceful revolution

---> Play Riff 1 (x7)

---> No guitar over:

I see the last frontier in the peaceful revolutio

World peace is mearly the product of social evolution

The conquest lies in excepting different people

And thinking right here at home...in the suns kingdom

---> Play Riff 3 over:

The begining of the end

Now the people hope we will not bend

The tyrant to power, his days are done

In the worldwide revolution

---> Play Riff 1 over:

Yeah the peaceful revolution

---> Play Riff 1 (x1)

---> Play Riff 1 over:

It's the peaceful revolution

It's the peaceful revolution

---> Play Fill

---> End on E5 (022xxx)

Get this song at:  amazon.com

Share your thoughts

0 Comments found