311

311 - Offbeat Bare Ass guitar tab

311 - Offbeat bareass.

Tabbed by Josh: threeeleven02@hotmail.com.

Riff 1 (w/Heavy Distortion):

============================

B5/F# C5/G

1:--------------

2:--------------

3:-4--4----5--5-

4:-4--4----5--5-

5:-2--2----3--3-

6:-2--2----3--3-

Riff 2 (w/Distortion):

======================

N.C.

1:------------------

2:------------------

3:------------------

4:----------4-2-4-4-

5:------------------

6:-0-1-2-2----------

Riff 3 (w/Distortion):

======================

E5 F#5 G5 F#5

1:------------------

2:------------------

3:------------------

4:------------------

5:-2-2-2-2--4--5--4-

6:-0-0-0-0--2--3--2-

Riff 4 (w/Distortion):

======================

N.C.

1:--------------------

2:--------------------

3:--------------------

4:------------------5-

5:-5h7-7-7--5-7-5-7---

6:--------------------

Chorus (w/Heavy Distortion):

============================

G5 C#5/Ab

1:---------------------

2:---------------------

3:------6--6--6--6-6-6-

4:-5-5--6--6--6--6-6-6-

5:-5-5--4--4--4--4-4-4-

6:-3-3--4--4--4--4-4-4-

Riff 5 (w/Distortion):

======================

B5 D5 B5 C5

1:-7--10--7--8-8-8-8-

2:-7--10--7--8-8-8-8-

3:-------------------

4:-------------------

5:-------------------

6:-------------------

Get this song at:  amazon.com

Share your thoughts

0 Comments found