311

311 - Lucky guitar tab

Artist: 311

Title: Lucky

Album: Grassroots

e------------------------------

b------------------------------

g----------4-------4-----------

d----------2-------2-----------

a----------2-------2-----------

e----------0-------0-----------

e-----------------------------------

b-----------------------------------

g----6---4--------------------------

d----x---x---6---4---6--------------

a----4---2---x---x---x--------------

e------------4---2---4--------------

Verse:

e--------------------------------------

b--------------------------------------

g--------------------------------------

d---4---4---4--------------------------

a---4---4---4----4----6--7-6-7-6/4--4--

e---2---2---2--------------------------

e----------------------------------------------

b----------------------------------------------

g----------------------------------------------

d------------4--4-----4------------------------

a---4--4-----5--5-----5-----2--2----2--2----4--

e---5--5--------------------3--3----3--3----5--

Then just do the same chords, but just on the back stroke

of your hand.

e------------------------------------------------------------------------------------------------------

b------------------------------------------------------------------------------------------------------

g------------------------------------------------------------------------------------------------------

d--2--2----2----2--2--2----2----2--2--2----2--2--2----2----2--2--2---------2----2--2--4-------

a--2--2----2----2--2--2----2----2--2--2----2--2--2----2----2--2--2----5----0----0--0--2----

e--0--0----0----0--0--0----0----0--0--0----0--0--0----0----0--0--0----3--------------------------------

e----------------------------------------------------------------------------------------------

b----------------------------------------------------------------------------------------------

g----------------------------------------------------------------------------------------------

d--2--2----2----2--2--2----2----2--------------2--2----2----2--2--2---------2----2--2--4-------

a--2--2----2----2--2--2----2----2---4-5-4-5----2--2----2----2--2--2----5----0----0--0--2-------

e--0--0----0----0--0--0----0----0---2-3-2-3----0--0----0----0--0--0----3-----------------------

Chorus: Also the hardest part of the song

e-----------------------------------------------------------------------------------------------------------

b---------------9------11h9-------9-------9----------------7----------7---------9h7----10-----10h9------------

g-------9-------9-------9---------9-------9----------------8----------8---------8-------8------8---------------

d------------------------------------------------------(9)--------------(9)-------------------------------------

a----9------9-------9---------9-------9-------7-------------------------------------------------------7/----------

e----9-----------------------------------------------7-----------7----------7--------7------7---------7/----------

e-----------------------------------------------------------------------------------------------------------

b------11-------11h9------11h9-----9--------9-------------7-------------7---------9h7-----7-----10h9------------

g-------9--------9---------9-------9--------9-------------8--(8)--------8---------8-------8------8---------------

d----------------------------------------------------------------9--------------(9)-------------------------------------

a---/9------9---------9---------9-------9-------7-------------------------------------------------------7/----------

e---/9-----------------------------------------------7-------------------------7--------7-----7---------7/----------

Any comments or questions,

Get this song at:  amazon.com sheetmusicplus.com

Share your thoughts

0 Comments found