311

311 - Love Song bass tab

I originally tabbed this song and have added a few things to this new version, have fun.

0:00-1:36

G -----------------------------------------------------------------------

D -----------------------------------------------------------------------

A --0-0-2-3------------0-0-2---------3-2-0---------------2-2-3-----------

E -----------3--3-3-3----------1-1------------0--0-0-0-------------------

then:1:37-2:00

G -----------------------------------------------------------------------

D ---------------------------------------------------------------2-2-2---

A -------------------------------------0-0--0-0-0----3--3--3-------------

E ---1-1--1-1-1----3-3--3-3-3-3------------------------------------------

G -----------------------------------------------------------------------

D -----------------------------------------------------------------------

A -----------------------------------------------------------------------

E ----1-1--1-1-1----3-3--3-3-3-3-----------------------------------------

added this variation

G -----------------------------------------------------------------------

D --------------------------------------------------------2-2-2----------

A ----------------------------00-2-3--0-0--0-0-0---3-3-3-----------------

E ----1-1--1-1-1----3--3-3-3---------------------------------------------

2:01-2:55

G -----------------------------------------------------------------------

D -----------------------------------------------------------------------

A --0-0-2-3-----------0-0-2---------3-2-0---------------2-2-3------------

E -----------3-3-3-3----------1-1------------0-0-0-0---------------------

2:56-end

G -----------------------------------------------------------------------

D ---------------------------------------------------------------2-2-2---

A -------------------------------------0-0--0-0-0----3--3--3-------------

E ---1-1--1-1-1----3-3--3-3-3-3------------------------------------------

G -----------------------------------------------------------------------

D --------------------------------------------------------2-2-2----------

A ----------------------------00-2-3--0-0--0-0-0---3-3-3-----------------

E ----1-1--1-1-1----3--3-3-3---------------------------------------------

ending:

G -----------------------------------------------------------------------

D -----------------------------------------------------------------------

A ------------------------------0*---------------------------------------

E ---1-1--1-1-1----3-3--3-3-3--------------------------------------------

*=Let ring

Get this song at:  amazon.com sheetmusicplus.com

Share your thoughts

0 Comments found