311

311 - Lose Bass guitar tab

====================================================================================

Lose, by 311, from the album "Grassroots"

Tab by Kirk

====================================================================================

I was looking for a bass tab for this song, and didn't have much luck finding anything

close to accurate. So, I gave it a shot, for what it's worth. There are a few transitions

that are a little more elaborate than what I've written here, but this will hopefully

get you started.

I haven't written in hammer-ons and pull-offs, etc, partly because I have no idea how

he's playing it, partly because I'm lazy, and partly because you'll end up doing it

how you like, anyways!

PART 1

======

Dm7 Bbm

G|---------------------------------------------------------------------------|

D|---------------------------------------------------------------------------|

A|-5-----0---3---5--5--5-----5--7--8--7--------------------1-----------------|

E|---------------------------------------6--6---1---1---1------1---1---1-----|

(I can see it now.......)

Dm7 Bbm

G|---------------------------------------------------------------------------|

D|---------------------------------------------------------------------------|

A|-5-----0---3---5--5--5-----5--7--8--7--------------------1-----------------|

E|---------------------------------------6------1---1---1------1---1---1-----|

PART 2

======

Eb F# Dm7

G|-------------------------8------------------------3---------------------------|

D|-----------5-5-5--8--8-8----8-5-----4--4-----4--6-----6--4--------------------|

A|-6--6-6-6------------------------4-------4----------------0-5-5-5--0--3--5-5--|

E|------------------------------------------------------------------------------|

(Though all we've been through....)

Dm7 A

G|------------------------------------7-------------------|

D|---------------------------0-----7-----7-----0----------|

A|-5--5-5-5----5--7--8--7-------8-----------8--------0----|

E|--------------------------------------------------------|

(I'm gonna lose you....)

PART 3

======

F G

G|----------------------------------------------------------------------------------------|

D|-333----------------333----------------555--------555---------555---------555-----------|

A|-----3--3---------------3--3----------------5---5------5---5-------5---5-------5---5----|

E|-----------1---1--------------1---1-----------------------------------------------------|

(Think of all the good times...)

F G

G|----------------------------------------------------------------------------------------|

D|-333----------------333----------------555--------555---------555---------555-----------|

A|-----3--3---------------3--3----------------5---5------5----5------5---5-------5---5----|

E|-----------1---1--------------1---1-----------------------------------------------------|

A Bb A Bb A

G|----------------------------------------------------------------------------------|

D|----------------------------------------------------------------------------------|

A|----------------------------------------------------------------------------------|

E|-5---5---5-5---5---5-6---6---6-6---6---6-5---5---5-5---5---5-6---6---6-6--5-------|

(This is what I asked for...)

PART 4

======

G|-----------------------------------------------------|

D|-----------------------------------------------------|

A|-0--3--5--------0--3--5-------1--1-----------1--1----| repeat x 2

E|---------------------------1--------------1----------|

Here's how it goes together:

Intro

=====

Part 1 x 2

Part 2

Verse 1 and 2

=============

Part 1 x 2

Part 2

Chorus

======

Part 3

Guitar Solo

===========

Part 1 (Don't play the first note - just skip to the A)

Part 2

Part 4

Part 2

Part 1

Part 2 (But skip several of the notes - listen to the song)

Part 3Added by tabs-database.com and our distinguished partners

Get this song at:  amazon.com

Share your thoughts

0 Comments found