311

311 - Livin And Rockin guitar tab

'Livin' & Rockin''

Performed by 311

From the album "Soundsystem" on Capricorn Records

Music by: T. Mahoney

Lyrics by: N. Hexum & D. Martinez

(c) 1999 Hydroponic Music (BMI)

---------------

Tabbed by: Gavin Kalan (Parker_311@yahoo.com)

Additions/Corrections by: Michael Slusarz (slusarz@bigworm.colorado.edu)

George C (alfonzo7@hotmail.com)

The 311 Guitar Archive -- http://bigworm.colorado.edu/311archive/

Intro (w/Distortion):

=====================

N.C.

1:-------------------------

2:-------------------------

3:-9p7---------9p7---------

4:-----9p7---------9p7-----

5:---------9p7---------9p7-

6:-------------------------

Riff 1 (Fast, w/Distortion):

============================

N.C.

1:---------------------------------------

2:---------------------------------------

3:---------------------------------------

4:---------------------------------------

5:---------------------------------------

6:-0-0-0-3-0-5-0-6-5-3-0-3b-0-10-10-10\\-

N.C.

1:-------------------------------

2:-------------------------------

3:-------------------------------

4:-------------------------------

5:-------------------------------

6:-0-0-0-3-0-5-3-0-6-5-3-0-6-5-0-

Riff 2 (Slower, w/Distortion):

==============================

N.C.

1:------------------------------------------------

2:------------------------------------------------

3:------------------------------------------------

4:-------4--2-2-2-2-2h3---------------------------

5:-----4----------------4--2-4-0--2-0-2-3-2-0-----

6:-2-2----------------------------------------2-0-

Chorus (w/Distortion):

======================

N.C.

1:-------------------------------

2:-------------------------------

3:-------------------------------

4:-------------------------------

5:-------2------------5---5---4--

6:-0-2-4---4-2-0-2-4-(5)-(5)-(4)-

N.C.

1:---------------------------

2:---------------------------

3:---------------------------

4:---------------------------

5:-------2-------------------

6:-0-2-4---4-2-0-0-2-0-2-4-2-

Bridge (w/Distortion):

======================

[Guitar 1:]

(E5)

1:-------------

2:-------------

3:-------------

4:-------------

5:(2-2--2-2-2)-

6:-0-0--0-0-0--

| Palm Mute |

[Guitar 2 (w/Harmonics):]

N.C.

1:-------------------------

2:-------------------------

3:-------------------------

4:-------------------------

5:-------------------------

6:-(2.7)-(2.7)-(2.7)-(2.7)-

Outro (w/Distortion):

=====================

N.C.

1:-----------------

2:-----------------

3:-----------------

4:-----------------

5:-----------------

6:-0-0-2-0-2-4-2-0-

Lyrics/Song Structure:

======================

---> Play Intro

---> Play Riff 1 over:

Nick:

Fire is my method for destruction

Leaving charred wreakage from my latest eruption

Unpredictable, my erratic demeanor

Bobbing and weaving as my mind gets leaner

Though I'm trippin' on legs that stumble but I don't fall down

You know I'm singing out things you mumble from a lack of resound

Pissed off mist lifts to honesty

Now come down motherfucker with your philosophy

---> Play Riff 2 over:

SA:

I'm at ease when I feel there's a breeze

Give me a little please

Aristotle I'm not but think of Socrates

So are you ready for your lesson blood?

Democratic non erratic Socratic method

We'll take away the pain

We'll pacify the bullshit built up in your brain

In times of change or the same old thangs

As you maintain or rearrange

---> Play Chorus over:

Both:

Can't nobody do it like 311

Fuckin' up competition cuz there really is none

Steppin' on your game from the first floor up tore up

Electricity we store it up

Can't nobody do it like 311

Break it down, what it is, dedication

Sending out gratitude like we laid it out on Down

Throw down fuck the bullshit we're still the sound

---> Play Riff 1 over:

SA:

Wild and lost speed mad

A long way from sad

Lookin' good like you should you're bad

An itinerant dimension is your spirit see

Like color absolute bodiless indeed

Casual kindred spirit past

All the obstacles you're dealin' with at last

The nasdaq, two puppies, baby needs new shoes

Car alarms, your rent, wedding bells, the blues

---> Play Riff 2 over:

Nick:

The tragic fucking comedy that was last night

Unfolds to my inner devils sheer delight

A pointless fucking banter in an endless bout

With whiskey soaked frolic room tobacco mouth

Then a sickening trip to what I call the elitist cesspool

Beckoning all the sycophants and defeated yes-fools

Hung over, broke, and a round of apologies

Now come down Martinez with the modern mythology

---> Play Chorus over:

Both:

Can't nobody do it like 311

Fuckin' up competition cuz there really is none

Steppin' on your game from the first floor up tore up

Electricity we store it up

Can't nobody do it like 311

Break it down, what it is, dedication

Sending out gratitude like we laid it out on Down

Throw down fuck the bullshit we're still the sound

---> Play Bridge

---> Play Outro over:

Both:

Can't nobody do it like 311

Fuckin' up competition cuz there really is none

Steppin' on your game from the first floor up tore up

Electricity we store it up

Get this song at:  amazon.com sheetmusicplus.com

Share your thoughts

0 Comments found