311

311 - Let The Cards Fall guitar tab

Intro:

======

N.C.

e:-------

B:-10----

G:----11-

D:-------

A:-------

E:-------

N.C.

e:-----------------------5---------------------------5----

B:-8-8p7-------8-8p7--------7--8-8p7--5-----8-8p7-------7-

G:--------5-5---------5------------------5--------5-------

D:--------------------------------------------------------

A:--------------------------------------------------------

E:--------------------------------------------------------

N.C.

e:-----------------------------------------------

B:-//13--13--13---13-15-12--12h13p12-12h13p12-10-

G:-----------------------------------------------

D:-----------------------------------------------

A:-----------------------------------------------

E:-----------------------------------------------

N.C.

e:------------------------------------------------------------

B:------------------------------------------------------------

G:-12-11-9-12-11-9-11---12-11-9-11--11-9----------------------

D:----------------------------------------10--10--10h12p10----

A:---------------------------------------------------------12-

E:------------------------------------------------------------

N.C. Asus2 N.C.

e:----------------------------------------------------------------

B:--------------------------------------------10-10-10------------

G:------------------------5-------9-10----12---9--9--9----12-11-9-

D:--------------------8-------8--------10-----12-12-12-12---------

A:-12--10--9--10-9------------------------------------------------

E:----------------------------------------------------------------

N.C.

e:-------------------------------------------------------------------

B:------10-------//12--14--15\\\\----------------//15--13-12--12h13p12-

G:----9----9--------------------12-14-12-14-12-----------------------

D:-12--------12------------------------------------------------------

A:-------------------------------------------------------------------

E:-------------------------------------------------------------------

N.C.

e:------------------------

B:-10h12p10-8-------------

G:------------12-11h12p11-

D:------------------------

A:------------------------

E:------------------------

Main Riff:

==========

[Guitar 1:]

N.C.

e:-----------------------------------------------------------------------

B:-----------------------------------------------------------------------

G:---2-5--2----2-5-2-0-2-------------------------------------------------

D:-4---------4------------4---4-4-5-4---2-2p0---2-3-2-0--2-0-2-0-2-3-2-0-

A:-----------------------------------------------------------------------

E:-----------------------------------------------------------------------

N.C.

e:------------------------------------------------------------------------

B:------------------------------------------------------------------------

G:------------------------------------------------------------------------

D:-2-0-2-0-5-3-2-3-2-0------------------------------------------------2---

A:----------------------5p4--2---------------------3--------------------5-

E:------------------------------3-3-5-3--5-5-3-5-3---5-3-5-3-5--3--2------

[Guitar 2:]

(D5)

e:------------------------------------------------------

B:------------------------------------------------------

G:--------7--------------------------7------------------

D:------------------------------------------------------

A:-5-5--5---5--5--5--5-7-5-7--5-5--5---5--5--5--5-7-5-7-

E:------------------------------------------------------

(D5)

e:------------------------------------------------------

B:------------------------------------------------------

G:--------7--------------------------7------------------

D:------------------------------------------------------

A:-5-5--5---5--5--5--5-7-5-7--5-5--5---5--5--5--5-7-5-7-

E:------------------------------------------------------

(Bb5)

e:------------------------------------------------------

B:------------------------------------------------------

G:------------------------------------------------------

D:--------8----------------8---------8------------------

A:---------------------5-8--------------------------5-8-

E:-6-6--6---6--6--6--6--------6-6--6---6--6--6--6-6-----

(D5)

e:------------------------------------------------------

B:------------------------------------------------------

G:--------7--------------------------7------------------

D:------------------------------------------------------

A:-5-5--5---5--5--5--5-7-5-7--5-5--5---5--5--5--5-7-5-7-

E:------------------------------------------------------

N.C.

e:------------------------------------------------------------

B:------------------------------------------------------------

G:--------------------------4---------------------------------

D:-------------------4-4--4---4-------------------------5-----

A:-5-4-2-2--2-5-5--5------------5---------2-2--2-5-5--5---5---

E:---------------------------------3-3--3-------------------7-

Am7 Csus2/G (D5)

e:-5--x-x--5--x-x--5-x--3---------------------------------

B:-5--x-x--5--x-x--5-x--3---------------------------------

G:-5--x-x--5--x-x--5-x--5--------------7------------------

D:-5--x-x--5--x-x--5-x--5---------------------------------

A:-7-------7-------7----3-------5-5--5---5--5--5--5-7-5-7-

E:-5-------5-------5----3---------------------------------

(D5)

e:---------------------------

B:---------------------------

G:--------7------------------

D:---------------------------

A:-5-5--5---5--5--5--5-7-5-7-

E:---------------------------

Ending A:

=========

D5/A C5/G D5/A C5/G D5/A C5/G D5/A C5/G

e:-----------------------------------------------------------

B:-----------------------------------------------------------

G:-7--x\\\\--5--x//--7--x\\\\--5--x//--7--x\\\\--5--x//--7--x\\\\--5-

D:-7--x\\\\--5--x//--7--x\\\\--5--x//--7--x\\\\--5--x//--7--x\\\\--5-

A:-5--x\\\\--3--x//--5--x\\\\--3--x//--5--x\\\\--3--x//--5--x\\\\--3-

E:-5--x\\\\--3--x//--5--x\\\\--3--x//--5--x\\\\--3--x//--5--x\\\\--3-

(Slides between chords are audible)

Ending B:

=========

D#5/Bb C#5/Ab D5/B

e:------------------

B:------------------

G:-8-8-8-8----6---7-

D:-8-8-8-8----6---7-

A:-6-6-6-6----4---5-

E:-6-6-6-6----4---5-

Lyrics/Song Structure:

======================

---> Play Intro

---> Play Main Riff (x1)

---> Play Main Riff over:

Nick:

Let the cards fall, and fall where they may

All I can do, all I can say

Gotta learn to trust my instincts

And surrender, let my songs sing itself

I am they who admit what they don't know

All my friends excitable, they'll tell you so

---> Play Ending A over:

Nick:

So let the cards fall, and fall where they may

In checkin' on our conviction dick

We run the shit our own way

Do as you will, Do as you wish

Follow your bliss on every day

Never ask for an advantage

Let the cards fall where they may

---> Play Ending B (x4)

---> Play Ending A over:

Nick:

So let the cards fall, and fall where they please

Ask me while we're at it, I do it with ease

Taking up space is the people who would like to hold you back

But in reality, the majority don't really give jack

---> Play Ending B (x4)

---> End on C5/G (3355xx)

Get this song at:  amazon.com sheetmusicplus.com

Share your thoughts

0 Comments found