311

311 - Its Getting Ok Now guitar tab

I just bought this album an hour and a half ago. I got home an hour ago. Fleshed this

out in about 10 minutes. I'm not bragging, I'm just SOOO stunned because it usually

takes me awhile to get a song done. But... I guess it's getting ok now.

311

Don't Tread On Me

Song: It's Getting OK Now

Music: Mr. Mahoney himself

Lyrics: none other than the Space Alien

Intro: slight distortion, the heavy distortion

e:----------------------------------------------------------|

B:----------------------------------------------------------|

G:----------------------------------------------------------|

D:----------------------------------------------------------|

A:---------------7-7-7-7-7--------------------7-7-7-7-7-----|

E:--5---5-8-5-8//----------8//---5---5-8-5-8//----------8//-|

Verse: dist.

e:----------------------------------------------------------|

B:----------------------------------------------------------|

G:----------------------------------------------------------|

D:-----7-7----0h5-5-5----------------7-7----0h5-5-5---------|

A:---------------------5-5-5-4p0--------------------5-5-4p0-|

E:--5-----------------------------5-------------------------|

Chorus: dist. *notes in parenthesis() don't have to be played

e:---------------------------------------------------------|

B:---------------------------------------------------------|

G:---9---11----7---9------------------------4--------------|

D:---7---9-----5---7---7---------4--4h5h7p5---7-5----------|

A:---7---9-----5---7---5----4h5h7--------------------------|

E:--(7)-(9)---(5)-(7)--5-----------------------------------|

Chorus ends on:

e:-----|

B:-----|

G:-----|

D:--7--|

A:--5--|

E:--5--|

Bridge/Breakdown: dist.

e:--------------------------------------------------------------|

B:--------------------------------------------------------------|

G:--------------------------------------------------------------|

D:--------------------------------------------------------------|

A:-5/7------------------------2--5/7------------------------2---|

E:-----5--2-0-2-3-2-0-3-2-3-2-0------5--2-0-3*---0-2-0-2-3-2-0--|

*

*(Hit note with pick & a little bit of your thumb)

That's the whole song. Parts repeat and such but you'll hear it, so

good luck with this one. I had a lot of fun with it. And I still am

having fun with it, it's awesome. Cheers!

Get this song at:  amazon.com

Share your thoughts

0 Comments found