311

311 - Independence Day bass tab

'Independence Day' -- Bass Tab

Performed by 311

From the album "Dammit!" on What Have You? Records

Music by: N. Hexum

Lyrics by: N. Hexum

(c) 1991 Allegiance Music/Hydroponic Music BMI

---------------

Tabbed by: Justin Reynolds (IllIHeXIll@aol.com)

The 311 Guitar Archive -- http://chromosome.colorado.edu/311archive/Home.html

Riff 1:

=======

G:-----------

D:-----------

A:-3-2-------

E:-----3-2-3-

Riff 2:

=======

G:------------

D:------------

A:-7----------

E:-----5-3--5-

Riff 3:

=======

G:---------

D:---------

A:-7-9-7-5-

E:---------

Bridge:

=======

G:--------------

D:----------9-9- [pluck]

A:-7-7-7-------- [slap]

E:--------------

== Last Updated: December 13, 1997 ==

Get this song at:  amazon.com

Share your thoughts

0 Comments found