311

311 - I\'ll Be Here Awhile guitar tab

Intro *************************** 1|**************************************

|-0----0-0--0---0--2--0--2--3----3--2--0---------------------------|---3----2------0----------------------

|-1----1-1--1---1--1--1--1--0----0--0--0----3---1--------0-1----|----0----0------0----3---1----0----

|-2----2-2--2---2--2--2--2--0----0--0--0----0---0---0h2-----2--|-----0-----0-----0-----0---0---0---

|---------------------------------------------------------------------------|-----------------------------------------

|---------------------------------------------------------------------------|-----------------------------------------

|---------------------------------------------------------------------------|-----------------------------------------

(1 Chorus)

I'll be... aint...

|---0-----------------------3---------------------

|---1-----------------------0----------------------

|---2-----------------------0----------------------

|---2-----------------------0----------------------

|---0-----------------------2----------------------

|----------------------------3---------------------

(Verse)

Far is... manic...

|---7-----------------------0----------------------

|---7-----------------------0----------------------

|---7-----------------------0----------------------

|---7-----------------------2----------------------

|---9-----------------------2----------------------

|---7-----------------------0----------------------

(Chorus)

Not a... uncertain...

|---3-----------------------3----------------------

|---5-----------------------3----------------------

|---4-----------------------4----------------------

|---5-----------------------5----------------------

|---3-----------------------5----------------------

|---3-----------------------3----------------------

Order: Times

Intro: 2

1 Chorus: 2

Verse: 2

Chorus: 2

1 Chorus: 6

Verse: 2

Chorus: 2

1 Chorus: 6

Verse: 2 (pick)

Chorus: 2 (pick)

1 Chorus/Chorus: 6 (simultaneously)

Get this song at:  amazon.com sheetmusicplus.com

Share your thoughts

0 Comments found