311

311 - Ill Be Here Awhile (acoustic) guitar tab

Author/Artist: 311

Title: I'll be Here Awhile

Album: From Chaos

Transcribed by: Jeff G.

Email: gamonj@erau.edu

Chords used:

Am C C/D B Em G

e--0---0---0---2--0---3-|

B--1---1---3---4--0---3-|

G--2---0---0---4--0---0-|

D--2---2---2---4--2---0-|

A--0---3---3---2--2---2-|

E--0---0---x---x--0---3-|

Intro:

e|-0--0-0--0--0--2--0-2--3--3--2-0------------------0-0--0--0--2--0-2---------|

B|-1--1-1--1--1--1--1-1--0--0--0-0-3-1-0-----0-1----1-1--1--1--1--1-1---------|

G|-2--2-2--2--2--2--2-2--0--0--0-0-------0h2-----2--2-2--2--2--2--2-2---------|

D|----------------------------------------------------------------------------|

A|----------------------------------------------------------------------------|

E|----------------------------------------------------------------------------|

e|--3-----2-----0---------------|

B|----0-----0-----0---3-1---0h1-|

G|------0-----0-----0-----2-----|

D|------------------------------|

A|------------------------------|

E|------------------------------|

Chorus:

Am C C/D G

I'll be here awhile Ain't goin' nowhere

Am C C/D G

I'll be here awhile Ain't goin' nowhere

Am C G

I'll be here awhile Ain't goin' nowhere

Am C C/D G

I'll be here awhile Ain't goin' nowhere

Verse:

B Em

Far is solace in the maddening pace

B Em

sad state written on my face

C

not a tight rope walk but dance

G

uncertain game of chance

C G

but I'll see it through in time

Chorus

Verse

Chorus

Verse (probably picked but sounds fine with chords)

Ending (Chorus with the intro in the backgound)

Get this song at:  amazon.com sheetmusicplus.com

Share your thoughts

0 Comments found