311

311 - I Told Myself guitar tab

'I Told Myself'

Performed by 311

From the album "From Chaos" on Volcano Records

Music by: C. Sexton & N. Hexum

Lyrics by: N. Hexum & D. Martinez

(c) 2001 Hydroponic Music BMI

---------------

Tabbed by: VMike311 (VMike311@aol.com)

Jared Liljenquist (jlelroy36@juno.com)

Michael Slusarz (slusarz@bigworm.colorado.edu)

Additions/Corrections by: Chris Camano (ShuVeLn311@aol.com)

The 311 Guitar Archive -- http://bigworm.colorado.edu/311archive/

Intro (w/Octaver):

==================

N.C.

e:-10-8-------10-8------

B:------10---------10---

G:---------9----------9-

D:----------------------

A:----------------------

E:----------------------

N.C.

e:-10--8------8------------10-8---10--8------8------------10-8-

B:-------11-----11-10---10--------------11-----11-10---10------

G:-------------------------------------------------------------

D:-------------------------------------------------------------

A:-------------------------------------------------------------

E:-------------------------------------------------------------

Riff 1:

=======

A5->G5 E5->F5 A5->F#5 E5->F5

e:---------------------------------------------------------

B:---------------------------------------------------------

G:---------------------------------------------------------

D:---------------------------------------------------------

A:-7--5--7--5--2--3-3--2--3-3---7--4--7--4--2--3-3--2--3-3-

E:-5--3--5--3--0--1-1--0--1-1---5--2--5--2--0--1-1--0--1-1-

| P.M. |

A5->G5 E5->F5 A5->F#5 E5->F5

e:---------------------------------------------------------

B:---------------------------------------------------------

G:---------------------------------------------------------

D:---------------------------------------------------------

A:-7--5--7--5--2--3-3--2--3-3---7--4--7--4--2--3-3--3--3-3-

E:-5--3--5--3--0--1-1--0--1-1---5--2--5--2--0--1-1--1--1-1-

| P.M. |

A5->G5 E5->F5 A5->F#5 E5->F5

e:-------------------------------------------------------------

B:-------------------------------------------------------------

G:-------------------------------------------------------------

D:-------------------------------------------------------------

A:-7--5--7--5--2--3-3--2--3-3---7--4--7--4--2--3-3--2--3-3-3-3-

E:-5--3--5--3--0--1-1--0--1-1---5--2--5--2--0--1-1--0--1-1-1-1-

| P.M. |

Riff 2:

=======

G5 A5->Bb5 G5

e:-------------------------

B:-------------------------

G:-------------------------

D:-------------------------

A:-5-5-5--7-8-7-5--5-5-5-5-

E:-3-3-3--5-6-5-3--3-3-3-3-

Chorus:

=======

E5 B5/F# A5 Ab5 E5 B5/F# A5 Ab5

e:------------------------------------

B:------------------------------------

G:------------------------------------

D:-2----4----7--6----2-2----4----7--6-

A:-2----2----7--6----2-2----2----7--6-

E:-0----2----5--4----0-0----2----5--4-

E5 B5/F# A5 Ab5 E5 B5/F# A5 D5/A

e:--------------------------------------

B:--------------------------------------

G:----------------------------------(7)-

D:-2----4----7--6----2-2----4----7---7--

A:-2----2----7--6----2-2----2----7---5--

E:-0----2----5--4----0-0----2----5---5--

***

*** = Ending: End on last D5/A and play note in ()'s

Fill 1 (w/Octaver):

===================

N.C.

e:------------------------

B:------------------------

G:------------------------

D:------------------------

A:-5--3--------5--3-------

E:------5--0---------5--0-

Bridge (w/Heavy Distortion):

============================

D5/A C5/G D5/A C5/G N.C.

e:-------------------------------------------

B:-------------------------------------------

G:-7----7\\5-5-5--5//7----7\\5-5-5-----------

D:-7----7\\5-5-5--5//7----7\\5-5-5-----5-3---

A:-5----5\\3-3-3--3//5----5\\3-3-3---3-----3-

E:-5----5\\3-3-3--3//5----5\\3-3-3-----------

D5/A C5/G D5/A C5/G N.C.

e:-------------------------------------------

B:-------------------------------------------

G:-7----7\\5-5-5--5//7----7\\5-5-5-----------

D:-7----7\\5-5-5--5//7----7\\5-5-5-----5-3---

A:-5----5\\3-3-3--3//5----5\\3-3-3---3-----3-

E:-5----5\\3-3-3--3//5----5\\3-3-3-----------

F5 G5

e:-----------------------------------------------------------------

B:-----------------------------------------------------------------

G:-----------------------------------------------------------------

D:-----------------------------------------------------------------

A:-3-3-3-3-3-3-3-3-3-3-3-3-3-3-3-3-5-5-5-5-5-5-5-5-5-5-5-5-5-5-5-5-

E:-1-1-1-1-1-1-1-1-1-1-1-1-1-1-1-1-3-3-3-3-3-3-3-3-3-3-3-3-3-3-3-3-

| P.M. |

Lyrics/Song Structure:

=======================

---> Play Intro (x1)

---> Play Riff 1 over:

---> Play Riff 2 over:

---> Play Chorus over:

---> Play Fill 1 (x1)

---> Play Riff 1 over:

---> Play Riff 2 over:

---> Play Chorus over:

---> Play Bridge over:

---> Play Chorus over:

Get this song at:  amazon.com sheetmusicplus.com

Share your thoughts

0 Comments found