311

311 - Getting Through To Her Bass guitar tab

INTRO / CHORUS

G------------------------------------------------------|

D------------------------------------------------------|

A-6--6--4--4--6-------------7-7-7--6--6-7--9--9--7--9--| (A)

E------------------------------------------------------|

B---------------7--7--7-8-7----------------------------|

G----------------------------------------------------------|

D----------------------------------------------------------|

A-6--6--4--4--6-------------7-7-7--6--6-7--9-9-9--7--9-9-9-| (B)

E----------------------------------------------------------|

B---------------7--7--7-8-7--------------------------------|

PLAY A

G---------------------------------------------|

D---------------------------------------------|

A-6--6--4--4--6-------------7-7-7--6--6-0~----|

E---------------------------------------------|

B---------------7--7--7-8-7-------------------|

VERSE

G---------------------------------------|

D---------------------------------------|

A-----------------9-7---6-7-6-7-9-7-6---|

E-7-7-7-7-7-7-7-7---------------------7-| x8

CHORUS = A & B ONCE

VERSE

CHORUS

BRIDGE

G----------------------|

D----------------------|

A-2--2---2-2-4--4--4-4-| (C)

E----------------------| x4

G-----------------------------------------------|

D-----------------------------------------------|

A-----------6-6-6-6-4-2-------------0-0-2-4-2-0-|

E-2-2--2-2----------------0-0--0-0--------------| x4

G-------------------------------------|

D-------------------------------------|

A-------------------------------------|

E-2--2--2--2--0--0--0--0--2--2--0--0~-|

B--2--2--2--2--0--0--0--0--2--2--0----|

G-------------------------------|

D-------------------------------|

A---------2~-----------------2~-|

E-2~--0~------5~-----2~--0~-----| x2

CHORUS

PLAY C

END

G---

D---

A---

E---

B-0~

Fun song to play once you memorize it. 311 is one of the toughest bands to get correct

on. This is 100% correct on notation and use of strings. Enjoy!Added by tabs-database.com and our distinguished partners

Get this song at:  amazon.com

Share your thoughts

0 Comments found