311

311 - Galaxy bass tab

'Galaxy' -- Bass Tab

Performed by 311

From the album "Transistor" on Capricorn/Mercury Records

Music by: C. Sexton

Lyrics by: D. Martinez

(c) 1997 Hydroponic Music BMI

---------------

Tabbed by: Justin Reynolds (illihexill@aol.com)

The 311 Guitar Archive -- http://chromosome.colorado.edu/311archive/

* Bass doubles guitar, except on chorus *

Intro:

======

G:-----------------------

D:-----------------------

A:----------------6----8-

E:-6----4----4-----------

B:-----------------------

Riff 1:

=======

G:--------------------------------------------------

D:--------------------------------------------------

A:-0-2-0----------0---------0-2-0----------0--------

E:-------3--3-3-3---1--1-1--------3--3-3-3---1--1-2-

B:--------------------------------------------------

Chorus:

=======

G:------------------------

D:------------------------

A:------------------------

E:-4----4--4--4--4--4-4-4-

B:------------------------

Bridge:

=======

G:-----------------------------------------------

D:-----------------------------------------------

A:-0-0-2-0---0-0-2-0-----------------------------

E:---------3---------3--0-0-0--1--0-0---1---0--1-

B:-----------------------------------------------

Ending:

=======

G:-----------

D:-----------

A:-3---4---2-

E:-----------

B:-----------

Get this song at:  amazon.com

Share your thoughts

0 Comments found