311

311 - Fuck The Bullshit guitar tab

311-Fuck the Bullshit

Intro A (w/Distortion):

=======================

F#5 A5 F#5 A5 B5 E5 G#5 (E) A5 G#5

1:-----------------------------------------

2:-----------------------------------------

3:-----------------------------------------

4:-----------------------------------------

5:-4--4--7--4---7--9--(2--2)-6-------7---6-

6:-2--2--5--2---5--7---0--0--4---0---5---4-

Intro B (w/Distortion):

=======================

F#5 A5 F#5 G#5 E5

1:-------------------------

2:-------------------------

3:-------------------------

4:-------------------------

5:-4--4--7--4---6--6--6--2-

6:-2--2--5--2---4--4--4--0-

Riff 1 (Clean):

===============

N.C.

1:-17p14-----------------------

2:-------17p14-----------------

3:--------------16-16-16-16p14-

4:-----------------------------

5:-----------------------------

6:-----------------------------

Riff 2 (Clean):

===============

N.C.

1:-------------------------------

2:-------------------------------

3:-------14-14-16-14-14-------14-

4:-14h16----------------14h16----

5:-------------------------------

6:-------------------------------

Riff 3 (Clean):

===============

N.C.

1:--------------------------------------------

2:--------------------------------------------

3:-16p14----14--16p14-----14--14--16p14----14-

4:-------16------------16---------------16----

5:--------------------------------------------

6:--------------------------------------------

Riff 4 (w/Distortion):

======================

F#5 G#5 E5

1:-----------------------------------------

2:-----------------------------------------

3:-----------------------------------------

4:-----------------------------------------

5:-4----4--4--4--4----4-4-4--4--4--6-6-6-2-

6:-2----2--2--2--2----2-2-2--2--2--4-4-4-0-

Riff 5 (w/Distortion):

======================

N.C.

1:-----------------------

2:-----------------------

3:-----------------------

4:-------------------4/6-

5:-------------------5/7-

6:-0-0--0-0--0-0-0-0-----

Riff 6 (w/Distortion):

======================

E5 F#5 E5 F#5 E5 F#5

1:-----------------------

2:-----------------------

3:-----------------------

4:-2---4---2---4---2---4-

5:-2---4---2---4---2---4-

6:-0---2---0---2---0---2-

Riff 7 (w/Distortion and Palm Muting):

======================================

E5

1:---------------------------------------------------------------

2:---------------------------------------------------------------

3:---------------------------------------------------------------

4:---------------------------------------------------------------

5:-2-2-2-2-2-2-2-2-2-2-2-2-2-2-2-2-2-2-2-2-2-2-2-2-2-2-2-2-2-2-2-

6:-0-0-0-0-0-0-0-0-0-0-0-0-0-0-0-0-0-0-0-0-0-0-0-0-0-0-0-0-0-0-0-

F#5

1:---------------------------------------------------------------

2:---------------------------------------------------------------

3:---------------------------------------------------------------

4:---------------------------------------------------------------

5:-4-4-4-4-4-4-4-4-4-4-4-4-4-4-4-4-4-4-4-4-4-4-4-4-4-4-4-4-4-4-4-

6:-2-2-2-2-2-2-2-2-2-2-2-2-2-2-2-2-2-2-2-2-2-2-2-2-2-2-2-2-2-2-2-

Riff 8 (w/light distortion):

============================

N.C.

1:----------------------

2:----------------------

3:----------------------

4:-------16p14----14-16-

5:-14-16-------16-------

6:----------------------

Riff 9 (w/light distortion):

============================

N.C.

1:------

2:-b14b-

3:-b16b-

4:------

5:------

6:------

Riff 10 (w/Distortion):

=======================

F# A B

1:-------------

2:-------------

3:-(3---6---8)-

4:--4---7---9--

5:--4---7---9--

6:--2---5---7--

Get this song at:  amazon.com sheetmusicplus.com

Share your thoughts

0 Comments found