311

311 - Frolic Room guitar tab

Frolic Room

well here\\'s my first tab. This is Frolic Room off of their new album

\\'Don\\'t Tread on Me.\\' Im sure its all correct, here it is, enjoy.

intro/verse (listen for palm muting)

e|------------------------------------------------------------------------l

B|--555555555-----------------------------------4444----------------------l

G|------------------2222------6666--444444------------2222----------------l

D|------------------------------------------------------------------------l

A|------------------------------------------------------------------------l

E|------------------------------------------------------------------------l

Bridge (Ooh...In the company of pretty girls...)

e|------------------------------------------------------------------------l

B|------------------------------------------------------------------------l

G|------------------------------------------------------------------------l

D|--4----------6------- 7-------9-----------------------------------------l X4

A|--4-x6-------6 x6---- 7-x4--- 9-x4--------------------------------------l

E|--2----------4--------5-------7-----------------------------------------l

slide slide slide

Pre-Chorus (A party.Afterparty....)

e|------------------------------------------------------------------------l

B|------------------------------------------------------------------------l

G|------------------------------------------------------------------------l

D|--2--2---6--6---7--7---9--9---------------------------------------------l X2

A|--2--2---6--6---7--7---9--9---------------------------------------------l

E|--0--0---4--4---5--5---7--7---------------------------------------------l

(There\\'s always something not to miss...)

e|------------------------------------------------------------------------l

B|------------------------------------------------------------------------l

G|------------------------------------------------------------------------l

D|--2--2--x-x-x--6--6-x-x-x--7-7--x-x-x--9--9--x-x-x----------------------l x4

A|--2--2--x-x-x--6--6-x-x-x--7-7--x-x-x--9--9--x-x-x----------------------l

E|--0--0--x-x-x--4--4-x-x-x--5-5--x-x-x--7--7--x-x-x----------------------l

Chorus

e|----4----5-----4-------------l----------------------------------------------l

B|----4----5-----4------x5-----l----------------------------------------------l

G|--6-6----5-----4-------------l----------------------------------------------l

D|--6-6--7-7---6-6--2--------- l----9-----------------------------------------l

A|--4-4--7-7---6-6--2----------l----9-----------------------------------------l

E|-------5-5---4-4--0----------l----7-----------------------------------------l

Solo

e|-----------------------------------------------------------------------l

B|---9-------------------------------------------------------------------l

G|-----11--9---4h6 6 6 4h6--6-6--4h6-6-6-6-4-----------------------------l

D|----------------------------------------------------4------------------l

A|-----------------------------------------------------------------------l

E|----------------------------------------------------------0------------l

solo cont....

e|------------------------------------------------------------------------l

B|---9--------------------------------------------------------------------l

G|-----11--9---4h6 6 6 4h6--6-6--4-4-4-4-6-4------------------------------l

D|---------------------------------------------4--------------------------l

A|------------------------------------------------------------------------l

E|------------------------------------------------------------------------l

SA\\'s verse...

e|------------------------------------------------------------------------l

B|--555555555-----------------------------------4444----------------------l

G|------------------2222------6666--444444------------2222----------------l

D|------------------------------------------------------------------------l

A|------------------------------------------------------------------------l

E|------------------------------------------------------------------------l

Bridge (Ooh...In the company....)

e|------------------------------------------------------------------------l

B|------------------------------------------------------------------------l

G|------------------------------------------------------------------------l

D|--4----------6------- 7-------9-----------------------------------------l X4

A|--4-x6-------6x6----- 7x4--- 9-x4--------------------------------------l

E|--2----------4--------5-------7-----------------------------------------l

slide slide slide

Pre-Chorus (A party.Afterparty....)

e|------------------------------------------------------------------------l

B|------------------------------------------------------------------------l

G|------------------------------------------------------------------------l

D|--2--2---6--6---7--7---9--9---------------------------------------------l X2

A|--2--2---6--6---7--7---9--9---------------------------------------------l

E|--0--0---4--4---5--5---7--7---------------------------------------------l

(There\\'s always something not to miss...)

e|------------------------------------------------------------------------l

B|------------------------------------------------------------------------l

G|------------------------------------------------------------------------l

D|--2--2--x-x-x--6--6-x-x-x--7-7--x-x-x--9--9--x-x-x----------------------l x4

A|--2--2--x-x-x--6--6-x-x-x--7-7--x-x-x--9--9--x-x-x----------------------l

E|--0--0--x-x-x--4--4-x-x-x--5-5--x-x-x--7--7--x-x-x----------------------l

Chorus

e|----4----5-----4-------------l----------------------------------------------l

B|----4----5-----4-----x5------l----------------------------------------------l

G|--6-6----5-----4-------------l-------9--------------------------------------l

D|--6-6--7-7---6-6---2-------- l---9---9--------------------------------------l

A|--4-4--7-7---6-6---2---------l---9---7--------------------------------------l

E|-------5-5---4-4---0-------- l---7------------------------------------------l

-----------------------------------------------------------------------------

that\\'s it, here\\'s the order.

intro/verse

bridge

pre-chorus

chorus

solo

SA\\'s verse

bridge

pre-chorus

chorus

Get this song at:  amazon.com

Share your thoughts

0 Comments found