311

311 - Eons guitar tab

'Eons'

Performed by 311

From the album "Soundsystem" on Capricorn Records

Music by: C. Sexton

Lyrics by: N. Hexum

(c) 1999 Hydroponic Music BMI

---------------

Tabbed by: Fuzzytofu (Fuzzytofu@aol.com)

Additions/Corrections by: Matt Binkley (cybrbink15@yahoo.com)

Chris Comeauz (ccomeaux@home.com)

Michael Slusarz (slusarz@chromosome.colorado.edu)

Lyric help by: Todd Hurst (hursttm@uindy.edu)

The 311 Guitar Archive -- http://chromosome.colorado.edu/311archive/

* Eons from the Soundsystem album is actually played on a 7 string guitar.

Play all the the fifth chords in the first chorus on the low B string.

Gavin De La Garde (raz@fast.net.au)

Since most people don't have a 7-string guitar, this is tabbed out for a

standard 6-string guitar.

Intro/Verse:

============

N.C.

1:------------------------------------------------------------

2:------------------------------------------------------------

3:------------------------------------------------------------

4:------------------------------------------------------------

5:------------------------------------------------------------

6:-0-0-0-0--0-0-4-0-0-0-4-0-0-5--0-0-0-0--0-0-4-0-0-0-4-0-0-5-

N.C.

1:------------------------------------------------------------

2:------------------------------------------------------------

3:------------------------------------------------------------

4:------------------------------------------------------------

5:------------------------------------------------------------

6:-0-0-0-0--0-0-4-0-0-0-3-0-0-2--0-0-0-0--0-0-4-0-0-0-3-0-0-2-

Fill 1:

=======

N.C.

1:----------------------

2:----------------------

3:----------------------

4:----------------------

5:----------------------

6:-1h3--1h3----1h3--1h3-

Chorus A:

=========

B5/F# D5/A G5 B5/F# (C5/G)

1:--------------------------------

2:--------------------------------

3:--------------------------------

4:-4------7------5------4-----(5)-

5:-2------5------5------2-----(3)-

6:-2------5------3------2-----(3)-

* Play notes in () last time through.

Chorus B:

=========

F#5 A5 E5 D5/A

1:-----------------------|-----

2:-----------------------|-----

3:------------------(2)--|-(2)-

4:-4-//--7--\\--2----0---|--0--

5:-4-//--7--\\--2----0---|--0--

6:-2-//--5--\\--0--------|-----

[Play last time]

Lyrics/Song Structure:

======================

---> Play Intro/Verse (x1)

---> Play Intro/Verse over:

You got a wishing well within

That's ready to begin

See how we roll

See how we roll

I'm trying to compromise

Because with me there are no lies

See how we run

It's already begun

Now that I'm back to a pushing pin

That weighs two hundred tons

I'd like to drop it on you

And watch it all fall through

---> Play Fill 1 (x1)

---> Play Chorus A over:

Nobody knows just what

You're battling inside

You can't hide

Nobody knows just why

Most everyone will lie

If they need to

---> Play Intro/Verse over:

The ones who aggravate you most

And happen to be ever close

Seem to be the ones lurching

For the same things that you are searching

The ones that make you feel ill

And you think that nature should have killed

Those you curse when you're alone

Seem to be so close to home

---> Play Fill 1 (x1)

---> Play Chorus B over:

Not an even field to be on

Feels like standing still for eons and eons

Stare it dead in the eye, what now?

All we can due is try to shut it down

Shut it down

Not an even field to be on

Feels like standing still for eons and eons

Stare it dead in the eye, what now?

All we can do is try to shut it down

Get this song at:  amazon.com

Share your thoughts

0 Comments found