311

311 - Empire guitar tab

-----------------------------------------------------------------------------------------

--------------- EMPIRE - 311 and B.E.P --------------------

-----------------------------------------------------------------------------------------

Tabbed by:Sean

Email:Salvationarmykid@yahoo.com

Tuning: Standard

I couldnt find a tab anywhere for this great song so i decided to put one up.

Pretty easy song...im sure its 99% correct.

This is the main riff thats pretty much played the whole song. Its palm muted

as well as the whole song. Listen to the song to get the rhythm.

e|----------------------------------------------------------------------|

B|----------------------------------------------------------------------|

G|----------------------------------------------------------------------|

D|---------------0------------------------------------------------------|

A|-2-0-2-0-2-0-2----2--0-2-0-2-0----------------------------------------|

E|-------------------------------0--0-1-2--2-----------------------------|

-Bridge

e|----------------------------------------------------------------------|

B|----------------------------------------------------------------------|

G|----------------------------------------------------------------------|

D|----------------------------------------------------------------------|

A|-2-0-2-0-2-0-2-0--0--0-0-0-0-0---------------------0--0---------------|

E|-------------------------------3--3--3-3-3-2--2--2---2----------------|

-After bridge (4x)

e|--------------

B|--------------

G|--------------

D|--------------

A|--2-0-2-0-2---

E|--------------

| / slide up

| slide down

| h hammer-on

| p pull-off

| ~ vibrato

| + harmonic

| x Mute note

============================================================================

Get this song at:  amazon.com sheetmusicplus.com

Share your thoughts

0 Comments found