311

311 - Dont Tread On Me guitar tab

Title: Don\\'t Tread On Me

Artist: 311

Album: Don\\'t Tread On Me

Tabbed by: Jose L.

Standard Tuning: EADGBE

Intro (Distortion):

Am G6 N.C.

1:--5-------------------------------------------------------------------||

2:--5-------5---------------5-------------------------------------------||

3:--5---------5-----------7---7-4---------5-2---5-2----------4/5---4/5--||

4:--7-----7-----7-5----55---------5-3---3-----3-----3-2~---2-----2------||

5:--7-------------------------------------------------------------------||

6:--5-------------------------------------------------------------------||

Riff 1 (Clean):

C E7 Am F

1:--8--8--8--8--7--7--7--7--5--5--5--5--5--5--5--5--||

2:--8--8--8--8--9--9--9--9--5--5--5--5--6--6--6--6--||

3:--9--9--9--9--7--7--7--7--5--5--5--5--5--5--5--5--|| (x2)

4:--------------------------------------------------||

5:--------------------------------------------------||

6:--------------------------------------------------||

Riff 2 (Clean):

Am G

1:-x-x-5-x-x-x-5-x-x-x-5-x-x-x-5-x-x-x-3-x-x-x-3-x-x-x-3-x-x-x-3-x-|

2:-x-x-5-x-x-x-5-x-x-x-5-x-x-x-5-x-x-x-3-x-x-x-3-x-x-x-3-x-x-x-3-x-|

3:-x-x-5-x-x-x-5-x-x-x-5-x-x-x-5-x-x-x-4-x-x-x-4-x-x-x-4-x-x-x-4-x-| (x2)

4:-----------------------------------------------------------------|

5:-----------------------------------------------------------------|

6:-----------------------------------------------------------------|

F E5/B G

1:-x-x-5-x-x-x-5-x-x-x-5-x-x-x-5---------------3---||

2:-x-x-6-x-x-x-6-x-x-x-6-x-x-x-6--------5------3---||

3:-x-x-5-x-x-x-5-x-x-x-5-x-x-x-5----4---4--4---4---||

4:----------------------------------2---2--5-------||

5:----------------------------------2------5-------||

6:-----------------------------------------3-------||

Riff 1 (Clean):

C E7 Am F

1:--8--8--8--8--7--7--7--7--5--5--5--5--5--5--5--5--||

2:--8--8--8--8--9--9--9--9--5--5--5--5--6--6--6--6--||

3:--9--9--9--9--7--7--7--7--5--5--5--5--5--5--5--5--|| (x2)

4:--------------------------------------------------||

5:--------------------------------------------------||

6:--------------------------------------------------||

Riff 3 (Clean):

A5 G5 F5 E5/B D5/A C5/G B5/F#

1:-------------------------------------------------| |---------------------------------------------||

2:-------------------------------------------------| |---------------------------------------------||

3:-------------------------------------------------| |--------------------------9----7----5----4---||

4:-------------------------------------------------|

Get this song at:  amazon.com

Share your thoughts

0 Comments found