311

311 - Dancehall guitar tab

311 -- Dancehall

tabbed by Groll32

I'm sure on this one.

Intro (w/ distortion)

E-----------------------

B-----------------------

G----------------------- * Bass plays other notes *

D---2-2-----------------

A---2-2-----------------

E---0-0-----------------

Riff 1: (w/ distortion)

E-----------------------

B-----------------------

G-----------------------

D---2-2-----------------

A---2-2---3--0----------

E---0-0---------1--0----

Riff 2: (w/ distortion)

E-----------------------

B-----------------------

G-----------------------

D--3-3----6-6-----------

A--3-3----6-6-----------

E--1-1----4-4-----------

Riff 3: (w/ distortion)

E-------------------------------------

B-------------------------------------

G-------------------------------------

D--3-3------------------6-6-----------

A--3-3------------------6-6-----------

E--1-1------4-4-----------

-- Harmonics. They aren't all the

same note. You need to listen to the song

the get the exact idea of how fast

Tim slides up and down the neck.

Chorus: (w/ distortion)

E-----------------------

B--------------------b8-

G--99-9-99-9-9-99----b7- partially palm mute

D--99-9-99-9-9-99-------

A--77-7-77-7-7-77-------

E--00-0-00-0-0-00-------

[Song Order]

-- Intro: 3x

-- Riff 1: 1x

-- Play Riff 1 over:

You could lose your mind

Easier than you would like to think

Your best friend could up and leave you

Playing tricks and cold deceive you

Standing there people stare

Let down by your own mind

-- Play Riff 2 over:

Day of appreciation

For ways your mind has not yet let you down

-- Play Riff 3 over:

The truth is that we will all go

Maybe five minutes after the show

You know you are a shooting star

A blazing flash then gone

--Play Chorus over:

Are we advancing or a collapsing

Visionary

Are we really here

Are we imaginary

As my thoughts separates

Into the many frayed parts

Torn shattered bits

My mind falling apart

Are we advancing or a collapsing

Visionary

Are we really here

Are we imaginary

As my thoughts separates

Into the many frayed parts

Torn shattered bits

My mind falling apart

-- Play Riff 1 over:

What if there was such a thing

What if there’s such a thing called

dependence day

There’s no self congratulation

Just a day of appreciation

Quietly humbly

For things that have not gone wrong

--Play Riff 2 over:

Imagine the frustration

Of losing bearing of the simplest thing

--Play Riff 3 over:

So come with your best and do your worst

before

You can’t remember what you came for

-- Play Chorus over:

Are we advancing or a collapsing

Visionary

Are we really here

Are we imaginary

As my thoughts separates

Into the many frayed parts

Torn shattered bits

My mind falling apart

-- Play Riff 3 over:

Blazing out the mains

Hungry flames consume all that I see

-- Play Chorus over:

Are we advancing or a collapsing

Visionary

Are we really here

Are we imaginary

As my thoughts separates

Into the many frayed parts

Torn shattered bits

My mind falling apart

-- Play Chorus over:

Are we advancing or a collapsing

Visionary

Are we really here

Are we imaginary

As my thoughts separates

Into the many frayed parts

Torn shattered bits

My mind falling apart

Get this song at:  amazon.com

Share your thoughts

0 Comments found