311

311 - Creature Features guitar tab

'Creature Feature'

Performed by 311

From the album "Transistor" on Capricorn/Mercury Records

Music by: A. Wills

Lyrics by: D. Martinez

(c) 1997 Hydroponic Music BMI

---------------

Tabbed by: RC311Yeh (RC311Yeh@aol.com)

ShoveIt113 (ShoveIt113@aol.com)

The 311 Guitar Archive -- http://chromosome.colorado.edu/311archive/

Intro (w/Phaser & Delay):

=========================

N.C.

1:-------5-7h9-

2:-5h7---------

3:-------------

4:-------------

5:-------------

6:-------------

Riff 1 (w/Phaser & Delay):

==========================

A F#m E N.C. A F#m E N.C. A F#m

1:--------------------0--------------------------0--4-----------------

2:-----5-----2-----0----3--2------5-----2-----0--------5------5-----2-

3:---6-----2-----1--------------6-----2-----1---------------6-----2---

4:-7-----4-----2--------------7-----4-----2---------------7-----4-----

5:--------------------------------------------------------------------

6:--------------------------------------------------------------------

E N.C. A F#m E N.C. A F#m E N.C.

1:-------0---4-------------------------------0---------------------0---4---

2:-----0--------5------5-----2-----0---3--2---------5-----2------0-------5-

3:---1---------------6-----2-----1----------------6-----2------1-----------

4:-2---------------7-----4-----2----------------7-----4------2-------------

5:-------------------------------------------------------------------------

6:-------------------------------------------------------------------------

Riff 2 (Clean):

===============

N.C.

1:--------------------------

2:--------------------------

3:------------------------3-

4:--------------3p2--3h5----

5:-3---3---3h5--------------

6:--------------------------

Fill (w/Distortion):

====================

C5

1:------------------

2:------------------

3:------------------

4:-5-------5------5-

5:-3-------3------3-

6:------------------

Chorus (w/Distortion & Octaver on):

===================================

C# N.C.

1:--------------------------------...-----

2:--------------------------------...-----

3:-6------------------------4-(3)-...-----

4:-6---------------4-----3--------...-4-3-

5:-4------4-----3-----2-----------...-----

6:-----3-----3--------------------...-----

|--> Do this 7th Time

Play note in ()'s the 4th and 7th time.

Post-Chorus:

============

(E) F5

1:-----------....-----

2:-----------....-----

3:-----------....-----

4:-2---2---2-....-(3)-

5:-X---X---X-....-(3)-

6:-0---0---0-....-(1)-

Play chord in ()'s at the end of the song.

Lyrics/Song Structure:

======================

---> Bass Intro

---> Play Intro (x1)

---> Play Riff 1 over:

I wanna' do what's right, be kind to every single body

Yeah yeah yeah

Open up to light just let it flow through my body

Yeah yeah yeah

---> Play Riff 2 over:

But sometimes I'm unsure, I tell my baby

Sometimes I'm unsure, I tell my baby

---> Play Chorus over:

I'm slippin' into darkness

I'm creepin' into darkness

I don't wanna start this

Attracted to the darkness

---> Play Post-Chorus

---> Play Riff 1 over:

Positive with love, just see the good in everybody

Yeah, yeah, yeah

----> Play Riff 2 over:

Sometimes I'm unsure, I tell my baby

Sometimes I'm unsure, I tell my baby

There's something going on in my heart

I feel it weigh me down so I

Reach for the wide blue sky

And try to pull into the deep arc of my arms

---> Play Chorus over:

I'm slippin' into darkness

I'm creepin' into darkness

I don't wanna start this

Attracted to the darkness

---> Play Post-Chorus

Get this song at:  amazon.com sheetmusicplus.com

Share your thoughts

0 Comments found