311

311 - Creature Feature guitar tab

'Creature Feature' -- Bass Tab

Performed by 311

From the album "Transistor" on Capricorn/Mercury Records

Music by: A. Wills

Lyrics by: D. Martinez

(c) 1997 Hydroponic Music BMI

---------------

Tabbed by: Chris McCoy (misterkite@msn.com)

Cameron Smith (camerons@hit.net)

Additions/Coorections by: Justin Reynolds (ChAoSHeX@juno.com)

cseger (cseger@bangornews.infi.net)

The 311 Guitar Archive -- http://chromosome.colorado.edu/311archive/Home.html

This is Played On a Fretless Bass, or with some real cool effects.

Riff A:

=======

1:-------------------------------------------------------------

2:-------------------------------------------------------------

3:-------------------------------------------------------------

4:---7///---4-----2---3-2-0--------7///---4-----2---3-2-0------

5:-5------2---2-0---0-------2----5------2---2-0---0--------2-0-

-- or --

1:----9\\(6)---6\\(4)----4---5---4---------

2:-7---------4--------2----2--------7--4\\-

3:-----------------------------------------

4:-----------------------------------------

5:-----------------------------------------

1:----9\\(6)---6\\(4)----4----5-4-2-------

2:-7---------4--------2-----2-------4-2\\-

3:----------------------------------------

4:----------------------------------------

5:----------------------------------------

Pre-Chorus:

===========

1:---------0---------

2:-----0h2-----------

3:-3-3-------------1-

4:-----------3-1h3---

Chorus:

=======

1:-------------------

2:-------------------

3:-4---4-----------2-

4:---4---4-4-3-2-4---

* Slight variation on 4th time, just listen *

Fill:

=====

1:------------------------

2:------------------------

3:-0----------------------

4:---2-1-0------0-------0-

Song Structure:

===============

Riff A (x6)

Pre-chorus (x4)

Chorus (x8) (0:57)

Fill

Riff A (x2) (1:24)

Pre-chorus (x8)

Chorus (x8) (2:07)

Fill

End On F

== Last Updated: September 16, 1997 ==

Get this song at:  amazon.com sheetmusicplus.com

Share your thoughts

0 Comments found