311

311 - Come Original guitar tab

T1: justin, justinnicholson@worldnet.att.net, 311, come original

S1: hell yes, first to tab some new 311 $#!+ !!!,

Intro play a few times

e-5-5---5~----4--2---------------------

B-5-5---5~----------4--2-----2---------

G-6-6---6~----------------4-----4--2--0

D--------------------------------------

A--------------------------------------

E--------------------------------------

Main riff

e---------------------------------------------------------

B---------------------------------------------------------

G---------------------------------------------------------

D-5-5--5--5--5-9-9--9--9--9/7-7--7--7--7--7--7/6-6--6-

A-5-5--5--5--5-9-9--9--9--9/7-7--7--7--7--7--7/6-6--6-

E-3-3--3--3--3/7-7--7--7--7/5-5--5--5--5--5--5/4-4--4-

on final 2 of main riff

e---------------------------------------------------------

B---------------------------------------------------------

G---------------------------------------------------------

D-5-5--5-5-5--5-9-9--9-9-9--9/7-7--7-7-7--7-7-7--7/6-6--6-

A-5-5--5-5-5--5-9-9--9-9-9--9/7-7--7-7-7--7-7-7--7/6-6--6-

E-3-3--3-3-3--3/7-7--7-7-7--7/5-5--5-5-5--5-5-5--5/4-4--4-

then you just go off beat every so often!

5

5

3

then it hits another slow part where you just hit......

e-----5-3--------------------------------------------------

B-2-4-----2-4----------------------------------------------

G-------------3-5------------------------------------------

D----------------------------------------------------------

A----------------------------------------------------------

E----------------------------------------------------------

then back to the riffs, well, have fun it's all good!

Get this song at:  amazon.com

Share your thoughts

0 Comments found