311

311 - Borders bass tab

'Borders' -- Bass Tab

Performed by 311

From the album "Transistor" on Capricorn/Mercury Records

Music by: C. Sexton

Lyrics by: D. Martinez

(c) 1997 Allegiance Music/Hydroponic Music BMI

---------------

Tabbed by: Tony Boehler (tboehler@adams.net)

The 311 Guitar Archive -- http://chromosome.colorado.edu/311archive/Home.html

Play in Drop-D tuning

Intro:

======

1:--------------------

2:--------------------

3:--------------------

4:-7-7--2-2--7--8---9-

Riff 1:

=======

1:---------------------------

2:---------------------------

3:---------------------------

4:-7-7--2-2--7--8---9--7-8-7-

Riff 2:

=======

1:----------------------

2:----------------------

3:----------------------

4:-2--5-7-5--2--5-6-5-7-

Chorus:

=======

1:---------------------------------------------------------------------

2:---------------------------------------------------------------------

3:---------------------------------------------------------------------

4:-4-3-4-3-4-3-4-3-4-3-4--5-4-5-4-5-4-5-4-5-4-5--5-4-5-4-5-4-5-4-5-4-5-

1:-------------------------

2:-----------------b4b-3---

3:-----------------------4-

4:-4-3-4-3-4-3-4-3---------

Ending:

=======

1:-------------------------------------------------

2:-------------------------------------------------

3:-------------------------------------------------

4:-3--4---7--8---6--7---5--6---4--5---2-2--(3)-(4)-

| |

Only play

last time

== Last Updated: September 16, 1997 ==

Get this song at:  amazon.com

Share your thoughts

0 Comments found