311

311 - Amber Ver. 2 guitar tab

By Richard Sands (http://www.richardx.com)

-Standard Tuning.

-Play clean the entire song.

-Theres a delay effect on across many of these riffs using medium level, low

repeat, and low to medium time interval.

Intro/Verse:

e|--------------------------------------------------|

B|----------------------5---------------------------|

G|------0-4--0-------5-----5-------0-4--0---0-4--0--|

D|--2-3----------5-7-----------2-3------------------|

A|--------------------------------------------------|

E|--------------------------------------------------|

  (played using auto-wah effect)

Pre-Chorus:

e|--8--8--8--8--7--7--7--7--|

B|--8--8--10-10-8--8--8--8--|

G|--9--9--9--9--7--7--7--7--|

D|--------------------------|

A|--------------------------|

E|--------------------------|

Chorus:

e|--5--5--5--5--7--7--7--7--|

B|--6--6--6--6--8--8--8--8--|

G|--5--5--5--5--7--7--7--7--|

D|--------------------------|

A|--------------------------|

E|--------------------------|

Solo:

e|-----------10-12-10----10------------------10-12-10----10-------10----------|

B|--12/13-13----------13----12~-------/13-13----------13----12-12----12-12-13-|

G|-----------------------------4-4-0------------------------------------------|

D|-----------------------------5-5-2------------------------------------------|

A|----------------------------------------------------------------------------|

E|----------------------------------------------------------------------------|

e|-------------------------------------------------1--0--|

B|-------------------------------------------------1--1--|

G|--2--2-4-5-4-2-2/4--4-5-7-5-4-4/5--5-7-9--7-5-4--2--0--|

D|--3--3-5-7-5-3-3/5--5-7-9-7-5-5/7--7-9-10-9-7-5--3--2--|

A|----------------------------------------------------3--|

E|-------------------------------------------------------|

Interlude:

e|--8---10--12---------15-12---------|

B|--8---10--12---13-15-------15-12/--|

G|--5---7---9------------------------|

D|-----------------------------------|

A|-----------------------------------|

E|-----------------------------------|

e|--0--0--0--0-3--|

B|--5--4--5--4-5--|

G|--5--4--5--4-5--|

D|--7--5--7--5-5--|

A|----------------|

E|----------------|

e|----------------------0----------------------1--0--|

B|---------0----------0------------0-----------1--1--|

G|-------0----------0------------0----------0--2--0--|

D|-----3----------2------------3----------2----3--2--|

A|---3----------2------------3----------2---------3--|

E|-1----------0------------1----------0--------------|

Outtro:

e|----------------------10-10/12~--|

B|----------------10-12------------|

G|--------9-10-12------------------|

D|--10-12--------------------------|

A|---------------------------------|

E|---------------------------------|

Intro x 8

Pre-Chorus x 2

Chorus x 2

Pre-Chorus x 2

(Pause)

Solo

Pre-Chorus x 2

Interlude

Pre-Chorus x 2

Chorus x 2

Outtro

===============================================================================

Get this song at:  amazon.com

Share your thoughts

0 Comments found