311

311 - Ali-g guitar tab

Ali-G

performed by 311

you can get this song from their tribute page on myspace.

riff 1:

=========

Palm Muted

1:-------------------------|

2:-------------------------|

3:-------------------------| x8

4:-2-2--5-5--4-4--3-3------|

5:-2-2--5-5--4-4--3-3------|

6:-0-0--3-3--2-2--1-1------|

riff 2

======

Slight PM

1:------------------------------|

2:------------------------------|

3:------------------------------|

4:-2-2-2--5-5-5--4-4-4--3-3-3---|

5:-2-2-2--5-5-5--4-4-4--3-3-3---|

6:-0-0-0--3-3-3--2-2-2--1-1-1---|

fill 1

======

1:------------------------------|

2:-----14-----------------------|

3:---------12----12----12--15^--|

4:--14--------14----14----------|

5:------------------------------|

6:------------------------------|

fill 2

=======

1:-0---------|

2:-1---------|

3:-2---------|

4:-2---------|

5:-0---------|

6:-----------|

riff 3

=======

1:--------------------------------------------------|

2:--------------------------------------------------|

3:--------------------------------------------------|

4:-2-x-2-2-2-5-x-5-5-5-4-x-4-4-4-3-x-3-3-3----------|

5:-2-x-2-2-2-5-x-5-5-3-4-x-4-4-4-3-x-3-3-3----------|

6:-0-x-0-0-0-3-x-3-3-3-2-x-2-2-2-1-x-1-1-1----------|

riff 4

=======

1:----------------------------------------|

2:----------------------------------------|

3:----------------------------------------|

4:------------------------------------7-7-|

5:-2-5-7-2-5-7------------2-5-7-2-5---5-5-|

6:-0-3-5-0-3-5-(5)(5)(5)--0-3-5-0-3-------|

outro

=======

1:--------------------0---------|

2:--------------------0---------|

3:--------------------0---------|

4:--2-2-2-2-2-2-2-2-2-2---------|

5:--2-2-2-2-2-2-2-2-2-2---------|

6:--0-0-0-0-0-0-0-0-0-0---------|Added by tabs-database.com and our distinguished partners

Get this song at:  amazon.com

Share your thoughts

0 Comments found