311

Whiskey And Wine Tabs



More from 311

311 Tabs
311 Chords
311 Bass
311 Lyrics

Whiskey and Wine by: 311

Music By: Nick Hexum, Tim Mahoney, Aaron Wills, Chad Sexton
Lyrics By: Nick Hexum, Doug Martinez

Tabbed by: Chris Gill
Email: CGill1403@aol.com

Tuning: E A D G B e

Album Version

Tim plays the rhythm during this song and Nick plays the lead but this is simplified for one guitar

e|--5----5--5---5---5--5---5--5---x-x---7----7--7---7---7--7---7---8---8--|
B|--5----5--5---5---5--5---5--5---x-x---7----7--7---7---7--7---7---8---9--|
G|--6----6--6---6---6--6---6--6---x-x---8----8--8---8---8--8---8---9--10--|
D|--7----7--7---7---7--7---7--7---x-x---9----9--9---9---9--9---9--10--11--| 
A|-(5)--------------------------------------------------------------------|
E|-(5)--------------------------------------------------------------------|

e|-10---10-10--10--10-10--10-10---x-x---7----7--7---7---7--7---7--7---x-x--|
B|-10---10-10--10--10-10--10-10---x-x---7----7--7---7---7--7---7--7---x-x--|
G|-11---11-11--11--11-11--11-11---x-x---8----8--8---8---8--8---8--8---x-x--|
D|-12---12-12--12--12-12--12-12---x-x---9----9--9---9---9--9---9--9---x-x--| x5
A|-------------------------------------------------------------------------|
E|-------------------------------------------------------------------------|


e|-----------------------------------------------------------------------------|
B|-----------------------------------------------------------------------------|
G|--------6--9--6h7-6-----6--------6------------6--9--6h7-6-----6--------------|
D|--7--9---------------9-----7--9-----7---7--9---------------9-----7--7-7-7-7--| 
A|-----------------------------------------------------------------------------|
E|-----------------------------------------------------------------------------|

e|-------------------------------------------------------------------------|
B|-------------------------------------------------------------------------|
G|--------6--9--6h7-6-----6--------6--9---9-11--9-11--9--6-6-7-6-----6-----|
D|--7--9---------------9-----7--9---------------------------------9-----7--|
A|-------------------------------------------------------------------------|
E|-------------------------------------------------------------------------|


e|--7----7--7---7---7--7---7--7---x-x---5----5--5---5---5--5---5--5---x-x--|
B|--7----7--7---7---7--7---7--7---x-x---5----5--5---5---5--5---5--5---x-x--|
G|--8----8--8---8---8--8---8--8---x-x---6----6--6---6---6--6---6--6---x-x--|
D|--9----9--9---9---9--9---9--9---x-x---7----7--7---7---7--7---7--7---x-x--| x2
A|-------------------------------------------------------------------------|
E|-------------------------------------------------------------------------|
(parts of the solo are played at different times during the chourus)


(Rest)


e|-----------------------------------------------------------------------------|
B|-----------------------------------------------------------------------------|
G|--------6--9--6h7-6-----6--------6------------6--9--6h7-6-----6--------------|
D|--7--9---------------9-----7--9-----7---7--9---------------9-----7--7-7-7-7--| 
A|-----------------------------------------------------------------------------|
E|-----------------------------------------------------------------------------|


e|-------------------------------------------------------------------------|
B|-------------------------------------------------------------------------|
G|--------6--9--6h7-6-----6--------6--9---9-11--9-11--9--6-6-7-6-----6-----|
D|--7--9---------------9-----7--9---------------------------------9-----7--|
A|-------------------------------------------------------------------------|
E|-------------------------------------------------------------------------|


e|--7----7--7---7---7--7---7--7---x-x---5----5--5---5---5--5---5--5---x-x--|
B|--7----7--7---7---7--7---7--7---x-x---5----5--5---5---5--5---5--5---x-x--|
G|--8----8--8---8---8--8---8--8---x-x---6----6--6---6---6--6---6--6---x-x--|
D|--9----9--9---9---9--9---9--9---x-x---7----7--7---7---7--7---7--7---x-x--| x2
A|-------------------------------------------------------------------------|
E|-------------------------------------------------------------------------|
(parts of the solo are played at different times during the chourus)

e|----------------------------------------------------------------------------|
B|----------------------------------------------------------------------------|
G|----------------------------------------------------------------------------|
D|--8*----12*----8*----12----8*-------8*----12*----8*----12*----8*-------12*--|
A|----------------------------------------------------------------------------|
E|----------------------------------------------------------------------------|


| /  slide up
|   slide down
| h  hammer-on
| p  pull-off
| ~  vibrato
| *  harmonic
| x  Mute note
|  sections are together
===============================================================================
Get this song at amazon.com      Ebay     Ringtones Ringtones  


Learn to play: Songwriting, Piano, Harmonica, Guitar
More 311 lyrics available at Muzikum

Related 311 Tabs

Theres Always An Excuse tabs
Rub-a-dub tabs
Little Brother tabs
Lifes Not A Race tabs
Freak Out tabs
Slinky tabs
Hydrophonic tabs
Fuck The Bullshit tabs
8 16 Am tabs
Paradise tabs
Flowing tabs
Whiskey Wine tabs
Hostile Apostile tabs
Phsyco tabs
Sick Tight tabs
From Chaos tabs
Whos Got The Herb tabs
Leaving Babylon tabs
Cutm tabs
Loco tabs


Guitar Tabs









All tabs are property and copyright of their owners. All tabs provided for educational purposes only. Privacy Policy, DMCA