311

Misdirected Hosility Tabs



More from 311

311 Tabs
311 Chords
311 Bass
311 Lyrics

311: Blue Almbum

Tab by: The Whiban

Effects: Octave, Distortion





YOU CAN TUNE YOURE GUITAR IN STANDARD IF YOU WANT!!

I have mine between D and standard that way the sound

it isnt to deep but sounds really good becuase its just a

little bit heavier.





D#:------------------------------------------------------------

A#:------------------------------------------------------------

F#:------------------------------------------------------------

C#:------------------------------------------------------------ X2

G#:-9-7-5--3-3H5P3---3-5/7-5-3-5----9-7-5--3-3H5P3--3----------

D#:----------------5-------------------------------5--5-3-2----

^^^^^ ^^^^^^ ^^^^^^

OCTAVE PEDAL OCTAVE PEDAL OCTAVE PEDAL





D#:--------------------------------------------

A#:--------------------------------------------

F#:--------------------------------------------

C#:--5-O-3--5-0-3--5-0-3--5-0-3----------------

G#:--5-0-3--5-0-3--5-0-3--5-0-3----------------

D#:--5-0-3--5-0-3--5-0-3--5-0-3----------------



Hit all these notes before S.A. comes in. !!!!! ( The one above and below ) !!!!!



D#:--------------------------------------------

A#:--------------------------------------------

F#:--------------------------------------------

C#:--5-O-3--5-0-3--5-0-3--5/-------------------

G#:--5-0-3--5-0-3--5-0-3--5/-------------------

D#:--5-0-3--5-0-3--5-0-3--5/-------------------



The one below is when S.A. comes in.



D#:--------------------------------------------

A#:--------------------------------------------

F#:--------------------------------------------

C#:--5-O-3--5-0-3--5-0-3--5/-------------------

G#:--5-0-3--5-0-3--5-0-3--5/-------------------

D#:--5-0-3--5-0-3--5-0-3--5/-------------------



D#:--------------------------------------------

A#:--------------------------------------------

F#:--------------------------------------------

C#:-3-x-3-3------------------------------------ x4

G#:-1-x-1-1---1-3-1----------------------------

D#:---------3----------------------------------



D#:--------------------------------------------

A#:--------------------------------------------

F#:--------------------------------------------

C#:--5-O-3--5-0-3--5-0-3--5/-------------------

G#:--5-0-3--5-0-3--5-0-3--5/-------------------

D#:--5-0-3--5-0-3--5-0-3--5/-------------------



D#:------------------------------------------------

A#:------------------------------------------------

F#:------------------------------------------------ x2

C#:------------------------------------------------

G#:-2-3-2-3-3-3-12--3-2-3-4-3-2-3------------------

D#:-0-1-0-1-1-1-12---------------------------------

^^^^^

Palm Mute on { 3 3 3 } Use Octave pedal on { -3-2-3-4-3-2-3- }

{ 1 1 1 }





D#:--------------------------------------------

A#:--------------------------------------------

F#:--------------------------------------------

C#:--5-O-3--5-0-3--5-0-3--5/-------------------

G#:--5-0-3--5-0-3--5-0-3--5/-------------------

D#:--5-0-3--5-0-3--5-0-3--5/-------------------



D#:--------------------------------------------

A#:--------------------------------------------

F#:--------------------------------------------

C#:-3-x-3-3------------------------------------ x4

G#:-1-x-1-1---1-3-1----------------------------

D#:---------3----------------------------------



D#:-----------------------------------------------------------------

A#:-----------------------------------------------------------------

F#:-----------------------------------------------------------------

C#:-----------------------------------------------------------------

G#:-----------------------------------------------------------------

D#:--11111-------1111111------1111111111-------11111111111-1-1/12---



D#:--------------------------------------------

A#:--------------------------------------------

F#:--------------------------------------------

C#:--5-O-3--5-0-3--5-0-3--5/-------------------

G#:--5-0-3--5-0-3--5-0-3--5/-------------------

D#:--5-0-3--5-0-3--5-0-3--5/-------------------



D#:------------------------------------------------

A#:------------------------------------------------

F#:------------------------------------------------ x2

C#:------------------------------------------------

G#:-2-3-2-3-3-3-12--3-2-3-4-3-2-3------------------

D#:-0-1-0-1-1-1-12---------------------------------

^^^^^

Palm Mute on { 3 3 3 } Use Octave pedal on { -3-2-3-4-3-2-3- }

{ 1 1 1 }



D#:------------------------------------------------

A#:------------------------------------------------

F#:------------------------------------------------ x2

C#:------------------------------------------------

G#:-2-3-2-3-3-3-12--3-2-3-3-2-3----------------

D#:-0-1-0-1-1-1-12---------------------------------

^^^^^

Palm Mute on { 3 3 3 } Use Octave pedal on { -3-2-3- }

{ 1 1 1 }





D#:------------------------------------------------

A#:------------------------------------------------

F#:------------------------------------------------ x2

C#:------------------------------------------------

G#:-2-3-2-3-3-3-12--3-2-3-4-3-2-3------------------

D#:-0-1-0-1-1-1-12---------------------------------

^^^^^

Palm Mute on { 3 3 3 } Use Octave pedal on { -3-2-3-4-3-2-3- }

{ 1 1 1 }



D#:------------------------------------------------

A#:------------------------------------------------

F#:------------------------------------------------ x2

C#:--------------------------------5----------------

G#:-2-3-2-3-3-3-12--3-2-3-3-2-3---5---------------

D#:-0-1-0-1-1-1-12----------------5-----------------

^^^^^

Palm Mute on { 3 3 3 } Use Octave pedal on { -3-2-3- }

{ 1 1 1 }



\"Misdirected Hostility\"



Not I\'m not the type to just act like I know

Puttin on an angle putting on ashow

Speaking on nothing makes you a stunt

I\'ll tell you right here yo I don\'t front I cross the t\'s and skip nonlegitimacies

Or else please I cannont handleall the negative vibe merchants

Is that all you have in you per chance

So muchangst and pain it\'s so wack

You should take a tip from the one Frank

Black Playsome pachinko play some parcheesi

Cause all the angst *** is just cheesy

It\'s the 311 bliss too smooth for pissed

Lyrics talkin loud again

Yeah we are theparty men

Cosmetics that you fretted

We sport the high asthetic H

ere go rapkickin the dazzled crazy mathematic

I am what I am mix some old school jams ontotape cuz the

Party\'s in the crates I scan step into the realm

What you gonna do

Give the party people something funky to listen to

Misdirected hostility,that\'s what you got see

Misdirected hostility, that\'s what you got see

Misdirected hostility, that\'s what you got see

Misdirected hostility, that\'swhat you got

Bodyrock pop and lock here\'s an example

Boulevard chrome beatsalways ampin\' your temple

Punks get got in the age of hip hop

It\'s just begunlike stolen bikes on the blacktop

Born to sing a lyric immaculately concepted

Nostrain in your game if your game is respected

Come as you are radio star

Drownout the hatred with a rhyme

An electric guitar

Dispatched when rap shattered theglass of radio access

May we turn some soul on their rythmless dances

You knowthe time and they\'l know the scoop

They\'l say it was a rhyme and a beat of a rapgroup

Your rhymes have been outmoded

Your rhymes have been outmoded

Your rhymeshave been outmoded

Your rhymes have been outmoded

Your rhymes have beenoutmoded

So just quityourbellyachin\'

You\'re saying that your tortured

Give me a***in break and

Maybe take out the source

Of your disparing what do I mean

Kickthe ***in\' heroin I speak from experience

Because I didn\'t see clearly once

Acting like I dunce In 1989 I was cocaine and Jim Beam

But now it\'s 95 and I\'mginseng

Misdirected hostility, that\'s what you got see

Misdirected hostility,that\'s what you got see

Misdirected hostility, that\'s what you got see

Misdirected hostility, that\'s what you got

Get this song at amazon.com      Ebay     Ringtones Ringtones  


Learn to play: Songwriting, Piano, Harmonica, Guitar
More 311 lyrics available at Muzikum

Related 311 Tabs

Taiyed tabs
Full Ride tabs
Buster 101 tabs
Hydroponic tabs
816 Am tabs
Into The Flame tabs
Amber Ver. 2 tabs
Sever tabs
How Do You Feel? tabs
Tribute tabs
Rub-a-dub tabs
Sick Tight tabs
Rollin tabs
Starshines tabs
Old Funk tabs
Creature Features tabs
Offbeat Bare Ass tabs
Drugstore Cowgirl tabs
All Mixed Up tabs
Down South tabs


Guitar Tabs









All tabs are property and copyright of their owners. All tabs provided for educational purposes only. Privacy Policy, DMCA