311

Hive Tabs



More from 311

311 Tabs
311 Chords
311 Bass
311 Lyrics

#



"HIVE"
by: 311


On '311'
Words + Music: Sexton, Hexum, Martinez
Tabbed by: Chris Sherman (Anyuerysm@aol.com)


Intro
pm____________
e----------------------------------------
B----------------------------------------
G----------------------------------------
D--6-6-6-6-6-6-6-6-6-6-6-6-6-6-6-6-------
A--6-6-6-6-6-6-6-6-6-6-6-6-6-6-6-6-------
E--4-4-4-4-4-4-4-4-4-4-4-4-4-4-4-4-------

Verse (a)

e------------------------------------------------------------------------=
--------------------
B------------------------------------------------------------------------=
--------------------
G--------3--3-3---------3--3-3---------3--3-3---------3--5-3---------3--3=
-3---------3--3-3---
D--2-3-2-3--3-3-2-2-3-2-3--3-3-2-2-3-2-3--3-3-2-2-3-2-3--5-3-2-2-3-2-3--3=
-3-2-2-3-2-3--3-3---A--2-3-2-1--1-1-2-2-3-2-1--1-1-2-2-3-2-1--1-1-2-2-3-2=
-1--3-1-2-2-3-2-1--1-1-2-2-3-2-1--1-1---
E--0-1-0--------0-0-1-0--------0-0-1-0--------0-0-1-0--------0-0-1-0-----=
---0-0-1-0----------

e------------------
B------------------
G----------3--3-3\\
D--2-2-3-2-3--3-3\\
A--2-2-3-2-1--1-1\\
E--0-0-1-0---------

Verse (b)

e------------------------------------------------------------------------=
-------
B----------------------------------------------------5-------------------=
-------
G--------------3/4-------------3/4-------------3/4-----3-----------------=
-------
D--2-4/5-7-5-4-3/4-2-4/5-7-5-4-3/4-2-4/5-7-5-4-3/4-2-----2-2-3-2-0-0-2-0-=
-------
A--2-4/5-7-5-4-1/2-2-4/5-7-5-4-1/2-2-4/5-7-5-4-1/2-2---------------------=
3-4-3-2
E--0-2/3-5-3-2-----0-2/3-5-3-2-----0-2/3-5-3-2-----0---------------------=
-------
=

You play verse b 2wice and the 2nd time, that little thingy at the end i=
s different. It goes like this:
e-------------------------
B--5----------------------
G----3-------0-2-3-5-7-9\\
D------2-2-4--------------
A-------------------------
E-------------------------

Verse (c) Bridge Ending
9x pm___
e------------------- e------------------------- e-----------
B------------------- B------------------------- B-----------
G------------2---2-- G--------2-3-4\2-2-2-2-2-- G--------3--
D--4-4-4-4-4-0-4-0-- D--2-4-5-2-3-4\2-2-2-2-2-- D--2-3-2-3--
A--2-2-2-2-2-0-2-0-- A--2-4-5-0-1-2\0-0-0-0-0-- A--2-3-2-1--
E--2-2-2-2-2---2---- E--0-2-3------------------ E--0-1-0----
Get this song at amazon.com      Ebay     Ringtones Ringtones  


Learn to play: Songwriting, Piano, Harmonica, Guitar
Also available at Muzikum: 311 - Hive lyrics

Related 311 Tabs

Running tabs
My Stoney Baby tabs
100 Rock tabs
Right Now tabs
Hydroponics tabs
Creature Feature tabs
Dont Stay Home tabs
Full Ride tabs
Sick Tight tabs
Random tabs
Nix Hex tabs
T P Combo tabs
Amber Ver. 2 tabs
Plain tabs
Thank Your Lucky Stars tabs
Dont Dwell tabs
Wake Your Mind Up tabs
Lucky tabs
Six tabs
Dont Dwell Bass tabs


Guitar Tabs









All tabs are property and copyright of their owners. All tabs provided for educational purposes only. Privacy Policy, DMCA