311

Gap Tabs



More from 311

311 Tabs
311 Chords
311 Bass
311 Lyrics

Main Riff (w/Distortion):
=========================
N.C.
e:-------------------------------
B:-------------------------------
G:-------------------------------
D:---4-2-0-0---0-2---------------
A:-2---------4-----4-4-------4p2-
E:---------------------0h2h5-----

Chorus (w/Heavy Distortion):
============================
B5/F# A5 C5/G G5
e:-------------------------------------------------------
B:-------------------------------------------------------
G:-4--4-4--4-4-----------------5--5-5--5-5---------------
D:-4--4-4--4-4---7--7-7--7-7---5--5-5--5-5---5--5-5--5-5-
A:-2--2-2--2-2---7--7-7--7-7---3--3-3--3-3---5--5-5--5-5-
E:-2--2-2--2-2---5--5-5--5-5---3--3-3--3-3---3--3-3--3-3-

Post-Chorus (w/Distortion):
===========================
D5 F#5 C5 D5 F#5 C5
e:--------------------------------------
B:--------------------------------------
G:------11----------------------11------
D:-12---11---10---12-12-12-12---11---10-
A:-12----9---10---12-12-12-12----9---10-
E:-10---------8---10-10-10-10---------8-


Lyrics/Song Structure:
======================
---> Play Main Riff over:
Nick:
Purified sounds brush them on like paint
Teenage dream to work with Ron Saint
Home he ain't, we laying tracks in Cali
The dude is excitable like a pep rally
Since the days of the Eds, in the Westside
Keeping it real, got nothing to hide
Now we are a number, there is none greater
Take me out sound king, yo peace, see 'ya later
---> Play Chorus over:
SA:
Let's step back tonight, all night
The groove is soothing, (like disco, get down tonight)
Let's step back tonight, all right
It's a better feeling with my friends once again
---> Play Main Riff over:
SA:
Grape vess sodapop licorice stick
Aunt Mary's summertime, backyard picnic
Did you drink my beer Doug, yeah I did it
Don't tell me to bring you beer if you think I won't sip it
Swingin' on, swingin' on jungle gym sets
Daddy talkin' about the horses he bet
When I got home my friends phoned Hey Holmes
---> Play Chorus over:
SA:
Let's step back tonight, all night
The groove is soothing, (like disco, get down tonight)
Let's step back tonight, all right
It's a better feeling with my friends once again
---> Play Post-Chorus over:
Nick or SA (?):
(Distorted): Eat smoked fish, that is my favorite dish (x4)
[We smoke hash, that is the way it is]
[East coast edge, that is the way it is]
---> Play Chorus over:
SA:
Let's step back tonight, all night
The groove is soothing, (like disco, get down tonight)
Let's step back tonight, all right
It's a better feeling with my friends once again
---> Play Post-Chorus over:
Nick or SA (?):
(Distorted): Eat smoked fish, that is my favorite dish (x4)
[We smoke hash, that is the way it is]
[East coast edge, that is the way it is]
Get this song at amazon.com      Ebay     Ringtones Ringtones  


Learn to play: Songwriting, Piano, Harmonica, Guitar
Also available at Muzikum: 311 - Gap lyrics

Related 311 Tabs

All Mixed Up tabs
Do You Right tabs
Damn tabs
I Told Myself tabs
Nix Hex tabs
Demama tabs
Rollin tabs
From Chaos tabs
Whos Got The Herb tabs
Sever tabs
Jupiter tabs
Offbeat Bare Ass tabs
Evolution tabs
Uncalm tabs
Creatures For A While Bass tabs
Starshines tabs
Crack The Code tabs
Loco tabs
Visit tabs
What Was I Thinking tabs


Guitar Tabs









All tabs are property and copyright of their owners. All tabs provided for educational purposes only. Privacy Policy, DMCA