311

Firewater Slomo Tabs



More from 311

311 Tabs
311 Chords
311 Bass
311 Lyrics

'Firewater (slo-mo)'
Performed by 311
From the album/video "Enlarged to Show Detail" on Capricorn Records
Music by:  C. Sexton
Lyrics by:  N. Hexum & D. Martinez
(c) 1995 Allegiance Music/Hydroponic Music BMI
---------------
Tabbed by: Springer (DSPRiNGR@aol.com)
Additions/Corrections by: David Ashley (LOCO311D@aol.com)
                          Steven Parr (Mudpie66@aol.com)
                          Luke Scrivener (local311@Geocities.com)
Lyric Help by: Kevin Tseng (warpedjnco@aol.com)
The 311 Guitar Archive -- http://chromosome.colorado.edu/311archive/Home.html

* Dropped "D" Tuning


Intro:
======
  D5 G#5 G5 F5  D5  G#5 G5 F5
1:---------------------------
2:---------------------------
3:---------------------------
4:-0--6--5--3---0-0--6--5--3-
5:-0--6--5--3---0-0--6--5--3-
6:-0--6--5--3---0-0--6--5--3-

Riff 1:
=======
   D5 E5 F5    D5 E5 F5 G5
1:------------------------
2:------------------------
3:------------------------
4:-0--2--3---3-0--2--3--5-
5:-0--2--3---3-0--2--3--5-
6:-0--2--3---3-0--2--3--5-


Riff 2:
=======
   D#5   F5->G5 D#5  F5->G5->D#5 
1:---------------------------
2:---------------------------
3:---------------------------
4:-1-1-1h3h5p3--1-1-1h3h5p3p1-
5:-1-1-1h3h5p3--1-1-1h3h5p3p1-
6:-1-1-1h3h5p3--1-1-1h3h5p3p1-


Chorus:
=======
   E5    F5  N.C.      D5    E5 N.C.  
1:-----------------------------------------
2:-----------------------------------------
3:-----------------------------------------
4:-2-2-2-3h5-----------0-0-0-2h3-----------
5:-2-2-2-3h5-2-3-2---2-0-0-0-2h3-2-3-2---2-
6:-2-2-2-3h5-------5---0-0-0-2h3-------5---

   E5    F5  N.C.      D5    E5  N.C.
1:-----------------------------------------
2:-----------------------------------------
3:-----------------------------------------
4:-2-2-2-3h5-----------0-0-0-2h3-----------
5:-2-2-2-3h5-0-1-0---0-0-0-0-2h3-0-1-0---0-
6:-2-2-2-3h5-------3---0-0-0-2h3-------3---


Bridge:
=======
  G#5 G5 F5   D5   G#5 G5 F5   D5  G#5 G5 F5   D5   G#5 G5 F5 G#5 G5 F5
1:---------------------------------------------------------------------
2:---------------------------------------------------------------------
3:---------------------------------------------------------------------
4:-6--5--3-3--0-0---6--5--3-3--0-0--6--5--3-3--0-0---6--5--3---6--5--3-
5:-6--5--3-3--0-0---6--5--3-3--0-0--6--5--3-3--0-0---6--5--3---6--5--3-
6:-6--5--3-3--0-0---6--5--3-3--0-0--6--5--3-3--0-0---6--5--3---6--5--3-

   D#5  F5   G5   F5   D#5         F5   E5   F5  G#5 G5 F5
1:--------------------------------------------------------
2:--------------------------------------------------------
3:--------------------------------------------------------
4:-1-1--3-3--5-5--3-3--1-1--1-1-1--3-3--5-5--3-3--6--5--3-
5:-1-1--3-3--5-5--3-3--1-1--1-1-1--3-3--5-5--3-3--6--5--3-
6:-1-1--3-3--5-5--3-3--1-1--1-1-1--3-3--5-5--3-3--6--5--3-


Lyrics/Song Structure:
======================
---> Play Intro (x2)
---> Play Riff 1 over:
   Talkin shit like shut up and listen to me
   Because cutting through the crap is my specialty
   Like a bomb I'm dropping yes a ton of lead
   You're trying to figure out the last thing that I said
---> Play Riff 2 over:
   I'm a redwood I'd love to be a tree
   Yes I'm a druid
   My words are flowing out like a fluid
   Never give in never conform
   I'll be busting out rhymes in a triplet form
---> Play Riff 1 over:
   Dead leaves on the trees in spring
   Can't hear the birds sing
   A light powdered snow on the ground is glistening
   Vipers slither atop a colder ground they quiver
---> Play Riff 2 over:
   A crack in the sky snow is falling and inside we shiver
   With a brownskin friend claiming kin to Crazy Horse
   I stink of veno my greasy clothes are rancid
   But I tip the bottle back the spirits are in me kid
---> Play Chorus over:
   Firewater - Call it liquid rapture
   Into the flash and flames of my crazy nature
   Firewater - The world's a mixture
   Of broken liquored people get the picture
   Firewater - Call it liquid rapture (Nick repeating "firewater")
   Into the flash and flames of my crazy nature
   Firewater - The world's a mixture
   Of broken liquored people get the picture
---> Play Riff 1 over:
   Whiskey be spittle at the corners of my mouth
   I'm rather liquored a light flickers I got the shakes and jitters
   I roll I'm like Raging Bull bumrushing the snow
   Hand to my head sway in the fire I've waded into
---> Play Riff 2 over:
   All alone except the whiskey voices
   Whores laugh neon signs flash other choices
   I stagger stumble to toast the past while I mumble
   Slur my song slow porno show marquee words crumble
---> Play Chorus over:
   Firewater - Call it liquid rapture
   Into the flash and flames of my crazy nature
   Firewater - The world's a mixture
   Of broken liquored people get the picture
   Firewater - Call it liquid rapture (Nick repeating "firewater")
   Into the flash and flames of my crazy nature
   Firewater - The world's a mixture
   Of broken liquored people get the picture
---> Play Bridge over:
   You're hanging around the house with all your friends steady drinking
   Smokin the green weed and your head is sorta blinkin
   You're going with the flow and everybody's getting plowed
   And the voices and the music and the noise is getting loud
   You've got a heavy buzz on when seven o clock rolls around
   So you pile into the clunker and start heading downtown
   Only nineteen but you know where you can get it
   So you slide inside the bar and everything is hitting
   By about eleven o'clock your brain is near dead
   You really cant remember who was the one that said
   "Let'ss go in the bathroom, and meet this guy Chuck
    He's got a thirty dollar white powder pick-me-up."
   Ten minutes later the whole vibe has changed
   You try for conversation but you know you're acting strange
   Your eyes are wide open but your smile is gone
   You just keep fiending till the fucking break of dawn
Get this song at amazon.com      Ebay     Ringtones Ringtones  


Learn to play: Songwriting, Piano, Harmonica, Guitar
301 Moved Permanently

Moved Permanently

The document has moved here.

Related 311 Tabs

Mindspin tabs
Dont Stay Home tabs
Dont Tread On Me tabs
Jupiter tabs
Fuck The Bullshit tabs
How Do You Feel? tabs
Right Now tabs
Dont Dwell Bass tabs
Lose Bass tabs
Allmxdup tabs
Tribute tabs
You Wouldnt Believe Me tabs
Stealing Happy Hours tabs
Visit tabs
I\'ll Be Here Awhile tabs
Down South tabs
Frolic Room tabs
Wake Your Mind Up tabs
Time Is Precious tabs
816 Am tabs


Guitar Tabs




All tabs are property and copyright of their owners. All tabs provided for educational purposes only. Privacy Policy, DMCA