311

Crack The Code (Version 2) Bass Tabs



More from 311

311 Tabs
311 Chords
311 Bass
311 Lyrics

#-----------------------------PLEASE NOTE-------------------------------------#
#This OLGA file is the author's own work and represents their interpretation  #
#of the song. You may only use this file for private study, scholarship, or   #
#research. Remember to view this file in Courier, or some other monospaced    #
#font. See http://www.olga.net/faq/ for more information.                     #
#-----------------------------------------------------------------------------#



Subject: 3/311/crack_the_code.tab

Title: Crack The Code

Artist: 311

Album: Evolver

Tabbed by: Alex Alexander (Charcoaltoaster@yahoo.com)    

Tuning: Standard ( E A D G B E)

 

 

 

Intro (Clean):

  

E|-7--7--7--7---5--5--5--5---8--8--8--8---8--8---10--10--||

B|-8--8--8--8---6--6--6--6---6--6--6--6---6--6---8---8---||

G|---7--7--7--7---7--7--7--7---7--7--7--7---7--7---12--12||

D|-------------------------------------------------------||

A|-------------------------------------------------------||

E|-------------------------------------------------------||

 

Verse (Heavy Distortion):

   

E|---------------------------------------------------------------||

B|-------------6-----6---------------1-----3---------------------||

G|--4-----4----7-----7----2-----2----2-----4----(1)--------------||

D|--5-----5----7-----7----3-----3----2-----4----(2)--------------||

A|--5-----5----5-x-x-5----3-----3----0-x-x-2----(2)--------------||

E|--3-x-x-3---------------1-x-x-1---------------(0)--------------||

()'s replace final Bm leading into Pre-Chorus

 

 








Pre-Chorus (Heavy Distortion):

 

E|--------------------------------------------------------------------|
B|-------5-5--------5-5--------5-5--------5-5--------5-5--------5-5---|
G|-------5-5--------5-5--------5-5--------5-5--------5-5--------5-5---|
D|-7-7-7------7-7-7------7-7-7------7-7-7------7-7-7------7-7-7-------|
A|-7-7-7------7-7-7------7-7-7------7-7-7------7-7-7------7-7-7-------| 
E|-5-5-5------5-5-5------5-5-5------5-5-5------5-5-5------5-5-5-------|

  

E|-0-------0--0-------0------||

B|-0-------0--0-------0------||

G|-1-------1--1-------1------||

D|-2-------2--2-------2------||

A|-2-2-2-2-2--2-2-2-2-2------||

E|-0-0-0-0-0--0-0-0-0-0------||

 

Chorus (Heavy Distortion):

  

E|-------------------------------------------------------------||

B|-------------------------------------------------------------||

G|-7-7-5--7-7-5------5-----5--7-7-5--7-7-5------5------5-------||

D|-7-7----7-7----3-3---3-3----7-7----7-7----3-3----3-3---------||

A|-5-5----5-5----3-3---3-3----5-5----5-5----3-3----3-3---------||

E|-5-5----5-5----1-1---1-1----5-5----5-5----1-1----1-1---------||

  

E|------------------------------------------------------------||

B|------------------------------------------------------------||

G|-7-7-5--7-7-5------5------5--1~-----------------------------||

D|-7-7----7-7----3-3----3-3----2~---(/7/95)--7/95-----------||

A|-5-5----5-5----3-3----3-3----2~-------------7/95-----------||

E|-5-5----5-5----1-1----1-1----0~-------------5/73-----------||

()'s played by another guitar at the same time as the matching chords.

There it is. E-mail me if thier are any question or if I mesed up
 somewhere.

 








________________________________________________________________________________
Get this song at amazon.com      Ebay     Ringtones Ringtones  


Learn to play: Songwriting, Piano, Harmonica, Guitar
More 311 lyrics available at Muzikum

Related 311 Bass Tabs

311 Album bass
Thriving To The Scene bass
Galaxy bass
Cutm bass
What Was I Thinking bass
Beautiful Disaster bass
816 Am bass
Its Getting Ok Now bass
Borders bass
Fat Chance bass
Crime bass
Other Side Of Things bass
Love Song bass
Sweet bass
Fuck The Bullshit bass
All Mixed Up bass
1 2 3 bass
Next bass
Blizza bass
Damn bass


Guitar Tabs









All tabs are property and copyright of their owners. All tabs provided for educational purposes only. Privacy Policy, DMCA