311

Crack The Code Bass Tabs



More from 311

311 Tabs
311 Chords
311 Bass
311 Lyrics

this song was made for a 5 string...but if you dont have one...this is how it is done.

Havnt quite got the transition down...it is way off...but this is a hell of a lot better

then the other tab. the breaks in teh bars arnt meant for the measure, but for different

riffs

x6

G|----------------|-------------|-------------|-------------|

D|----0h5-9-7-5-3-|---0h5-7-5-3-|---0h5-7-5-3-|----2--0-4--o|

A|----------------|-------------|-------------|-0-3--2-----o|

E|--3-------------|-1-----------|-1-----------|-------------|



transition (1:01) x3

G|-------------|-------------| |------------|

D|------2-0----|----2-0-2-0-o| |-2-0-0--0-2-|

A|----2------2-|-0-3--------o| |------------|

E|-0-3---------|-------------| |------------|

(1:43) x2 x2

G|-------------------------------------||---------------|---------------|

D|------------------------------------o||o-0-0-0--0-0-0-|-0-0-0--0-0-0-o|

A|-000-000-000-000-----000-000-000000-o||o--------------|--------------o|

E|-----------------0-1-----------------||---------------|---------------|



G|-------------| |--------|

D|-0-0-0-2-0-5-| |--------|

A|-------------| Song repeats...last note of song|---0----|

E|-------------| |--------|
Get this song at amazon.com      Ebay     Ringtones Ringtones  


Learn to play: Songwriting, Piano, Harmonica, Guitar
More 311 lyrics available at Muzikum

Related 311 Tabs

Leaving Babylon tabs
816 Am tabs
Sick Tight tabs
Nut Symptom tabs
Full Ride tabs
Summer Of Love tabs
Right Now tabs
Amber tabs
Cant Fade Me tabs
All Mixed Up2 tabs
Theres Always An Excuse tabs
Mindspin tabs
Strangers tabs
1 2 3 tabs
Ill Be Here A While tabs
Frolic Room tabs
Give Me A Call tabs
Silver tabs
Still Dreaming tabs
Lose Bass tabs


Guitar Tabs









All tabs are property and copyright of their owners. All tabs provided for educational purposes only. Privacy Policy, DMCA