311

Champagne (Version 2) Tabs



More from 311

311 Tabs
311 Chords
311 Bass
311 Lyrics

#-----------------------------PLEASE NOTE-------------------------------------#
#This OLGA file is the author's own work and represents their interpretation  #
#of the song. You may only use this file for private study, scholarship, or   #
#research. Remember to view this file in Courier, or some other monospaced    #
#font. See http://www.olga.net/faq/ for more information.                     #
#-----------------------------------------------------------------------------#


Subject: 3/311/champagne.tab


311 - Champagne
By: Dwayne Wayne(etdigitalis@hotmail.com)

This tab v3 of a great song off an excellent album.  If you don't =
already own 'From Chaos' I highly recommend it.

 








basic riff w/slight wah & echo
e|--12--9------------------------10--7--------------------|
b|---------10---------------------------8-----------------|
g|-------------11--------------------------9--------------|
d|-----------------12p11h12p11----------------10p9h10p9---|
a|--------------------------------------------------------|
e|--------------------------------------------------------|

chorus (strum freely)
       Fmag7      A(add9)
e|-------8----------7---------| repeat as necessary e|--7/9~--|
B|------10----------5---------| occasionally adding B|--------|
G|-------9----------6---------|
D|------10----------7---------|
A|-------x----------x---------|
E|-------x----------x---------|

I'm not sure about the ending chords... if anyone has any ideas,
feel free to drop me a line.  good luck.
Thanx goes out to Vince and Matt for their inputs.

 








Get this song at amazon.com      Ebay     Ringtones Ringtones  


Learn to play: Songwriting, Piano, Harmonica, Guitar
More 311 lyrics available at Muzikum

Related 311 Tabs

Speak Easy tabs
Frolic Room tabs
Eons tabs
Evolution tabs
Nutsymtom tabs
Fuck The Bullshit tabs
Fat Chance tabs
Dont Dwell tabs
Applied Science tabs
Light Years tabs
Champagne (Version 2) tabs
Galaxy tabs
Brodels tabs
I Told Myself tabs
1 2 3 tabs
No Control tabs
Creature Feature tabs
Wandering Around tabs
Time Is Precious tabs
Welcome tabs


Guitar Tabs









All tabs are property and copyright of their owners. All tabs provided for educational purposes only. Privacy Policy, DMCA