311

Brodels Tabs



More from 311

311 Tabs
311 Chords
311 Bass
311 Lyrics

#



****************
"Brodels"
by: 311
****************
On '311'
Wurdz + Muzick: Sexton, Hexum, Martinez
Tabbed by: Chris Sherman (Anyuerysm@aol.com)
________________________________________________________________________

Verse (a)
2x
e-----------------------------------------------------
B-----------------------------------------------------
G-----------------------------------------------------
D--5--3-5--3---5--3-5--3-8-7-5--3-5--3---5--3-5--3-2--
A--3--1-3--1---3--1-3--1-6-5-3--1-3--1---3--1-3--1-0--
E--3--1-3--1---3--1-3--1-6-5-3--1-3--1---3--1-3--1-0--

Verse (b)
4x
e-----------------------------
B-----------------------------
G-----------------------------
D--5--4-5-4-5-5--4-5-4-5-7-9--
A--5--4-5-4-5-5--4-5-4-5-7-9--
E--3--2-3-2-3-3--2-3-2-3-5-7--

Pre-Chorus
4x
e---------------------------------------------
B---------------------------------------------
G---------------------------------------------
D--7-7-x-5-x-5-5-x-7-x-5-x-7-x-5-x-5-5-x-7\6--
A--7-7-x-5-x-5-5-x-7-x-5-x-7-x-5-x-5-5-x-7\6--
E--5-5-x-3-x-3-3-x-5-x-3-x-5-x-3-x-3-3-x-5\4--







Chorus
pm____ 2x
e---------------------------------------------------------------
B---------------------------------------------------------------
G----------------4-----------------3-4-3-----4-4-4-3-3-3--------
D--2-2-5-7-8-7-5-4-2-2-2-2-4-3-3-6-3-4-3-6-6-4-4-4-3-3-3-2-2-2--
A--2-2-5-7-8-7-5-2-2-2-2-2-4-3-3-6-1-2-1-6-6-2-2-2-1-1-1-2-2-2--
E--0-0-3-5-6-5-3---0-0-0-0-2-1-1-4-------4-4-------------0-0-0--

Ending

e------------------------------------------
B------------------------------------------
G------------------------------------------
D--7\6--7\6--7\6--7-6-6-6-4-4-4-6-6-6-6\\--
A--7\6--7\6--7\6--7-6-6-6-4-4-4-6-6-6-6\\--
E--5\4--5\4--5\4--5-4-4-4-2-2-2-4-4-4-4\\--

Layout:
Verse (a)
Verse (b)
Pre-Chorus
Chorus
Verse (a)
Verse (b)
Pre-Chorus
Chorus
Verse (b)
Ending
Get this song at amazon.com      Ebay     Ringtones Ringtones  


Learn to play: Songwriting, Piano, Harmonica, Guitar
Also available at Muzikum: 311 - Brodels lyrics

Related 311 Tabs

Dont Dwell Bass tabs
Jupiter tabs
Lose tabs
Leaving Babylon tabs
You Wouldnt Believe Me tabs
311 tabs
Stealing Happy Hours tabs
Creatures tabs
Salsa tabs
Hydroponics tabs
Long For The Flowers tabs
816 Am tabs
1 2 3 tabs
Nutsymtom tabs
Ali-g tabs
Let The Cards Fall tabs
Damn tabs
Evolution tabs
Dancehall tabs
Light Years tabs


Guitar Tabs









All tabs are property and copyright of their owners. All tabs provided for educational purposes only. Privacy Policy, DMCA