311

Blizza Bass Tabs



More from 311

311 Tabs
311 Chords
311 Bass
311 Lyrics

Title:	Blizza
Artist: 311
Album: INstrumental B-side from the Soundsystem sessions
MP3 available at www.311.com
Tabbed by Ozymandias

I love this little ditty.  So simplistic--yet so f*ckin'
cool!

G|---|------------------------------------|*
D|---|------------------------------------|*
A|---|-2-2---2-2--2-----------------3-1-1-|*
E|---|------2------0-0--0-0--0-0-1-1------|*

****: this is where it gets tricky.  A five-string is helpful,
but you can play it on four.  I've included both versions.

G|-----------------|---8-7-----6-5---|
D|-----------------|--8---7---6---5--|
A|---6-5-----4-3---|-6-----5-4-----3-|
E|--6---5---4---3--|-----------------|
B|-4-----3-2-----1-|

Repeat those two lines over, in order of appearance.
The last note is Ab (E4.)

Simplistic, but great!  Too bad it's only 1:15 long.

Questions? Comments? Just want the damn song? Email me
slc_ozymandias@verizonmail.com.
Get this song at amazon.com      Ebay     Ringtones Ringtones  


Learn to play: Songwriting, Piano, Harmonica, Guitar
Also available at Muzikum: 311 - Blizza lyrics

Related 311 Bass Tabs

Slinky Girl bass
Grassroots bass
Summer Of Love bass
Slinky bass
816 Am bass
Lucky bass
Sweet bass
Cant Fade Me bass
Love Song bass
Borders bass
Other Side Of Things bass
Strong All Along bass
All Mixed Up bass
Amber bass
T P Combo bass
Eons bass
Outside bass
311 Album bass
Rollin bass
Livin Rockin bass


Guitar Tabs









All tabs are property and copyright of their owners. All tabs provided for educational purposes only. Privacy Policy, DMCA