311

Allmxdup Tabs



More from 311

311 Tabs
311 Chords
311 Bass
311 Lyrics

ALLMXDUP.TAB

[This was created with TabIt version 1.22]

E :4------*5-------|x-6-x6xx6xx6x6xx 3|------------------------ 3|
B :6------*6-------|x-6-x6xx9xx9x6xx ||------------------------ ||
G :5------*5-------|*---------------*||------------------------*||
D :6------*7-------|*---------------*||------------------------*||
A :4------*5-------|*--------------- ||8-*-8-*0-3-6-6-6-6-6-6-6 ||
E :----------------|---------------- ||6-*-6-*0-1-4-4-4-4-4-4-4 ||

E :6-*---6-4-*---4- 3|
B :6-*---6-4-*---4- ||
G :7-*---7-5-*---5-*||
D :----------------*||
A :*--------------- ||
E :*--------------- ||
Get this song at amazon.com      Ebay     Ringtones Ringtones  


Learn to play: Songwriting, Piano, Harmonica, Guitar
More 311 lyrics available at Muzikum

Related 311 Tabs

Inner Light Spectrum tabs
Firewater tabs
Slinky tabs
Today My Love tabs
Whiskey And Wine tabs
Drugstore Cowgirl tabs
Hydroponics tabs
Creature Feature tabs
Electricity tabs
Jupiter tabs
Summer Of Love tabs
Nutsymptom tabs
311-come Original tabs
Loco tabs
311 tabs
Bomb The Town tabs
Unity tabs
Push It Away tabs
Fat Chance tabs
Leaving Babylon tabs


Guitar Tabs









All tabs are property and copyright of their owners. All tabs provided for educational purposes only. Privacy Policy, DMCA