311

All Mixed Up Tabs



More from 311

311 Tabs
311 Chords
311 Bass
311 Lyrics

311-all mixed up
transcribed by zac murphy(murfbetheman@worldnet.att.com.)

intro
e----4--------5--------x---6---x---6---x---x---6---x---x---6---x---6---x---x
(play 4x)
b----6--------6--------x---6---x---6---x---x---9---x---x---9---x---6---x---x
g----5--------5---------------------------------------------------------------
--
d----6--------7---------------------------------------------------------------
--
a----4--------5---------------------------------------------------------------
--
e-----------------------------------------------------------------------------
---
verse 1
e---4---------5-------x---6---x---6---x---x---6---x---x---6---x---6---x---x
( play 4x)
b---6---------6-------x---6---x---6---x---x---9---x---x---9---x---6---x---x
g---5---------5---------------------------------------------------------------
-
d---6---------7---------------------------------------------------------------
-
a---4---------5---------------------------------------------------------------
-
e-----------------------------------------------------------------------------
--
pre-chorus
e--------------------------------------------------- ( play 8x)
b---------------------------------------------------
g---------------------------------------------------
d---------------------------------------------------
a---8----8---0---3---6---6---6---6---6---6---6
e---6----6---0---1---4---4---4---4---4---4---4
chorus 1 (same tab as pre-chorus,but only played 4x)
verse 2 (same tab as verse 1)
pre chorus 2 (same tab as pre-chorus 2)
chorus 2 (same tab as chorus 1)
interlude
e---6---x---x---6---x---x---6---x---x---6---x---x---6---x---x---x (play 4x)
b---6---x---x---6---x---x---6---x---x---6---x---x---6---x---x---x
g--------------------------------------------------------------------
d--------------------------------------------------------------------
a--------------------------------------------------------------------
e--------------------------------------------------------------------
bridge
e---6---------------6----4--------------4----- (play 4x)
b---6---------------6----4--------------4-----
g---7---------------7----5--------------5-----
d-----------------------------------------------
a-----------------------------------------------
e-----------------------------------------------

e------------------------------------------------- (play 2x)
b-------------------------------------------------
g-------------------------------------------------
d-------------------------------------------------
a---8---8---0---3---6---6---6---6---6---6---6
e---6---6---0---1---4---4---4---4---4---4---4
outro
e------------------------------------------------- (play 4x)
b-------------------------------------------------
g-------------------------------------------------
d-------------------------------------------------
a---8---8---0---3---6---6---6---6---6---6---6
e---6---6---0---1---4---4---4---4---4---4---4



"All Mixed Up" by 311

Tabbed by Mike Sumerano (mjs196@psu.edu)
Send corrections or questions to the above e-mail address!

Riff #1 - Clean
e|-4---5---6-6-X6-X666-X6-|
B|-6---6---6-6-X6-X666-X6-|
G|-5---5------------------|
D|-6---7------------------|
A|-4---5------------------|
E|-4---5------------------|

Riff #2 - w/Distortion
e|----------------------------------|
B|----------------------------------|
G|----------------------------------|
D|-8-8--4/6666666778-8--4/666666677-|
A|-8-8--4/6666666778-8--4/666666677-|
E|-6-6--2/4444444556-6--2/444444455-|

Thats it!

Note: That funky thing they do in Riff #1 with the B & e strings is not
quite right, but you get the idea. Listen to the song!!!



311: all mixed up
=================
Off of the lp "311"
Tabbed by matt neff

[part 1]:

G# a# a# (type 2)
E--4-----5-----6--6--6--6-6-----
B--6-----6-----6--6--6--6-6-----
G--5-----5-----7--7--7--7-7----- <-play this ska thing
D--6-----7-----8--8--8--8-8----- <- a few times
A-------------------------------
E-------------------------------
<=let ring=> <=palm mute=>

[part 2]:

With distortion:

A# a (G#) (A#)
E--------------------------------
B--------------------------------
G-------------------------------- <-frets in parenthesis
D--8--8--7--(7)\6--(6)/8--------- <-indicate the previous
A--8--8--7--(7)\6--(6)/8--------- <-chord being held out
E--6--6--5--(5)\4--(4)/6--------- <- (not muted)
<=let ring=>

[part 3]:

A# g#
E--6-6-x-x-6-x-6-x--4-4-x-x-4-x-4-x-
B--6-6-x-x-6-x-6-x--4-4-x-x-4-x-4-x-
G--7-7-x-x-7-x-7-x--5-5-x-x-5-x-5-x-
D--8-8-x-x-8-x-8-x--6-6-x-x-6-x-6-x-
A-----------------------------------
E-----------------------------------
<============palm mute=============>

[part 4]:

A# g# a# g# a# g# a# g#
E--6---6-4---4-6---6-4---4-6---6-4---4-6---6-4-
B--6---6-4---4-6---6-4---4-6---6-4---4-6---6-4-
G--7---7-5---5-7---7-5---5-7---7-5---5-7---7-5-
D--8---8-6---6-8---8-6---6-8---8-6---6-8---8-6-
A--8---8-6---6-8---8-6---6-8---8-6---6-8---8-6-
E--6---6-4---4-6---6-4---4-6---6-4---4-6---6-4-
<=================palm mute===================>



*How to play the song:*

Part 1 -- [intro]
Part 1 -- (you've got to trust your instinct...)
Part 2 -- (watch me now...)
Part 2 -- (all mixed up...)
Part 1 -- (you've got to trust your instinct...)
Part 2 -- (watch me now...)
Part 3 -- (keep me coming...)
Part 4 -- (you make me nervous...)
Part 2 -- (many moons since first I saw you...)
Part 2 -- (why'd I try...)
Get this song at amazon.com      Ebay     Ringtones Ringtones  


Learn to play: Songwriting, Piano, Harmonica, Guitar
Also available at Muzikum: 311 - All Mixed Up lyrics

Related 311 Tabs

Frolic Room tabs
311-come Original tabs
Visit tabs
Gap tabs
Ill Be Here Awhile tabs
Hostile Apostle tabs
Livin Rockin tabs
Creature Feature tabs
Use Of Time tabs
100 Rock tabs
Buster 101 tabs
How Do You Feel? tabs
Down tabs
Allmxdup tabs
Eons tabs
Livin And Rockin tabs
First Straw tabs
311 tabs
Its Getting Ok Now tabs
Still Dreaming tabs


Guitar Tabs









All tabs are property and copyright of their owners. All tabs provided for educational purposes only. Privacy Policy, DMCA