311

311 - 816 Am bass tab

'8:16 A.M.' -- Bass Tab

Performed by 311

From the album "Grassroots" on Capricorn Records

Music by: N. Hexum

Lyrics by: N. Hexum

(c) 1994 Allegiance Music/Hydroponic Music BMI

---------------

Tabbed by: Justin Reynolds (iLLiHeXiLL@aol.com)

The 311 Guitar Archive -- http://chromosome.colorado.edu/311archive/Home.html

* This follows the guitar exactly [for the most part] *

Intro:

======

G:----------------------------------------------------4------------

D:-------2---------------------------------2--------------5----5---

A:-2-2-5---------------------2-3-3--2-2--5--------------7----6---3-

E:---------0---2-3-5-3-2--5------------------0---2-3---------------

Verse:

======

G:-----------------------------------------------------------

D:-----------------------------------------------------------

A:-----------------------------------------------------------

E:-7--7--7--7--9--9--9--7--9---7--7--7--7--9--9--9--7--9---7-

Chorus:

=======

G:--------------------------------------------

D:--------------------------------------------

A:--------------------------------------------

E:-5-5-5-5-5-5-5--3-3-3-3-3-3-3-3-3-3-3-3-3-3-

== Last Updated: November 23, 1997 ==

Get this song at:  amazon.com sheetmusicplus.com

Share your thoughts

0 Comments found