311

311 - 123 guitar tab

'1,2,3'

Performed by 311

From the album "Grassroots" on Capricorn Records

Music by: N. Hexum & C. Sexton

Lyrics by: N. Hexum

(c) 1994 Allegiance Music/Hydroponic Music BMI

---------------

Tabbed by: Gregory Parr (gparr@tiger.lsuiss.ocs.lsu.edu)

Michael Slusarz (slusarz@ucsu.colorado.edu)

The 311 Guitar Archive -- http://chromosome.colorado.edu/311archive/

Riff 1 (Clean):

===============

B7sus4 Emaj7/B B7sus4 Emaj7/B

1:-5-------4--------5-------4-

2:-5-------4--------5-------4-

3:-4-------4--------4-------4-

4:-4-------2--------4-------2-

5:-2-------2--------2-------2-

6:----------------------------

Riff 2 (Clean):

===============

E5 D#5

1:-------

2:-5---4-

3:-4---3-

4:-2---1-

5:-------

6:-------

Riff 3 (Clean):

===============

D C#m D C#m

1:-2---4---2---4-

2:-3---5---3---5-

3:-2---6---2---6-

4:-0---6---0---6-

5:-----4-------4-

6:---------------

Riff 4 (Clean):

===============

C#m C

1:-4-----

2:-5---5-

3:-6---5-

4:-6---5-

5:-4---3-

6:-------

Riff 5 (Clean):

===============

B A B A

1:---------------

2:-4---2---4---2-

3:-4---2---4---2-

4:-4---2---4---2-

5:-2---0---2---0-

6:---------------

Riff 6 (w/Distortion):

======================

N.C.

1:------------------------------------------------------------

2:------------------------------------------------------------

3:------------------------------------------------------------

4:------------------------------------------------------------

5:------------------------------------------------------------

6:-0-2-4-2-4-5--5-4-2--0-2-4-2-4-5--5-4-2--0-2-4-2-4-5--5-4-2-

N.C.

1:--------------------------

2:--------------------------

3:--------------------------

4:--------------------------

5:--------------------------

6:-0-2-4-2-4-5--5-4--4-2--2-

Lyrics/Song Structure:

======================

---> Intro

---> Play Riff 1 over:

Long time did I run down like that

I would have three years ago-today but not now

It's not like that

---> Play Riff 2 (x1)

---> Play Riff 3 (x1)

---> Play Riff 4 (x1)

---> Play Riff 5 over:

It's all right to feel good

It's all for nothing to be wrong

The deepest dream that we have

Could be tomorrow's song

---> Play Riff 1 over:

Long time did I run down like that

I would have three years ago-today but not now

It's not like that

---> Play Riff 2 (x1)

---> Play Riff 3 (x1)

---> Play Riff 4 (x1)

---> Play Riff 5 over:

It's all right to feel good

It's all for nothing to be wrong

The deepest dream that we have

Could be tomorrow's song

---> Play Riff 6 over:

Just what did he say stop

1 and 2 and 3

Run up the hill do as you do

I'm going to chill you know you really

Ought to do the same

They wanna bug you

But I won't let them today

It's a sure shot to the bomb drop

Every si

Get this song at:  amazon.com sheetmusicplus.com

Share your thoughts

0 Comments found