311

1 2 3 Tabs



More from 311

311 Tabs
311 Chords
311 Bass
311 Lyrics

'1,2,3' -- Bass Tab
Performed by 311
From the album "Grassroots" on Capricorn Records
Music by:  N. Hexum & C. Sexton
Lyrics by:  N. Hexum
(c) 1994 Allegiance Music/Hydroponic Music BMI
---------------
Tabbed by: Justin Reynolds (iLLiHeXiLL@aol.com)
The 311 Guitar Archive -- http://chromosome.colorado.edu/311archive/Home.html

Riff 1:
=======

G:---------
D:---------
A:---------
E:-2--1--0-

Riff 2:
=======

G:-------------------------------------
D:-------------------------------------
A:-5-5-5-3--5-5-5-3--------------------
E:--------------------5-5-5-3--5-5-5-3-

 








Riff 3:
=======

G:-------------
D:-----------4-
A:------3-5----
E:-3-5---------

Riff 4:
=======

G:--------------------
D:--------------------
A:--------------------
E:-2--3--5---2--3---4-

 








== Last Updated:  November 23, 1997 ==
Get this song at amazon.com      Ebay     Ringtones Ringtones  


Learn to play: Songwriting, Piano, Harmonica, Guitar
Also available at Muzikum: 311 - 1 2 3 lyrics

Related 311 Tabs

You Wouldnt Believe Me tabs
Wake Your Mind Up tabs
Taiyed tabs
Six tabs
Ill Be Here A While tabs
Star Shines tabs
Feels So Good tabs
Evolution tabs
123 tabs
Rollin tabs
Cali Soca tabs
Uncalm tabs
Welcome tabs
311 tabs
Flowing tabs
Creatures For A While tabs
Sick Tight tabs
Cant Fade Me tabs
Empire tabs
Time Is Precious tabs


Guitar Tabs









All tabs are property and copyright of their owners. All tabs provided for educational purposes only. Privacy Policy, DMCA