311

311 - 1 2 3 bass tab

here is the 1,2,3 bass tab by 311. there is already a tab for this song

present, but it is totally wrong its disgusting. Mine is the correct version

and i suggest you post this one on your page to help viewers.

- thankyou

'1,2,3' -- Bass Tab

Performed by 311

>From the album "Grassroots" on Capricorn Records

Music by: N. Hexum & C. Sexton

Lyrics by: N. Hexum

(c) 1994 Allegiance Music/Hydroponic Music BMI

---------------

Tabbed by: Kevin Clark (Scruff311@aol.com)

The 311 Guitar Archive -- http://chromosome.colorado.edu/311archive/Home.html

Riff 1: (Long time did i run down like that...)

=======

G:----------------------------------------------

D:----------------------------------------------

A:-4------------4-----------2-----------2-------

E:-----2-2-2-------2-2-2------0-0-0------0-0-0--

Riff 2:

=======

G:------------------------------------------------------------------

D:------------------------------------------------------------------

A:--5-5-5-5-0---0-5-5-5-5-0--5--4-4-4-4---------4-4-4-4------4------

E:-----------------------------------------------4---4------------4-

Riff 3: (It's alright to feel good...)

=======

G:---------------------------------------------------

D:-----------2--4---2---------------2--4---2---------

A:--2---4---------------4--0---4---------------4-----

E:---------------------------------------------------

Riff 4: (Just what did he say stop...)

=======

G:-----------------------------------------------------------------

D:-----------------------------------------------------------------

A:-----------------------------------------------------------------

E:--0-2-4---2-4-5----5-4-2---0-2-4---2-4-5--(5)-(4)--(4)-(2)--(2)--

( ) = only play on 4th time through, (you'll hear it on CD)

Get this song at:  amazon.com

Share your thoughts

0 Comments found