3 Doors Down

Life Of My Own Chords, Tabs



More from 3 Doors Down

3 Doors Down Tabs
3 Doors Down Chords
3 Doors Down Bass
3 Doors Down Lyrics

#-----------------------------PLEASE NOTE-------------------------------------#
#This OLGA file is the author's own work and represents their interpretation  #
#of the song. You may only use this file for private study, scholarship, or   #
#research. Remember to view this file in Courier, or some other monospaced    #
#font. See http://www.olga.net/faq/ for more information.                     #
#-----------------------------------------------------------------------------#



Subject: 3/3_doors_down/life_of_my_own.tab

Author/Artist: 3 Doors Down
Title: Life Of My Own
Album: The Better Life
Tabbed by: Erik Weatherwax 

Standard Tuning

*1 - Intro/Verse
E |--------------------------|----------------------------------------|
B |--------------------------|----------------------------------------|
G |------------------------0-|----------------------------0-----------|
D |----9-----0-------4---4-5-|----9-----0-----------------------------|
A |--7-----7-----5-----5-----|--7-----7------------9----9-------------|
E |0-----8-------------------|0-----8-------8/10-----10---------------|
   (both of these are the same notes ... play it how you like)

E |3----2----1---|
B |--3----3----2-|
G |----2----2----|
   (litte fill in the verse -- it's an arpeggiated Dsus4 - D - Dsus2)

*2 - Chorus

D5  G5  E5
E |-------------------------------------------------------------------|
B |-------------------------------------------------------------------|
G |--------7----------------------------------------------------------|
D |2---5---7----------------------------------------------------------|
A |2---5---5----------------------------------------------------------|
E |0---3--------------------------------------------------------------|
   (Too lazy to do rhythm -- put the guitar down if you can't get it!)

 








*3 - Solo (not extraordinarily difficult as solos go...)

E |-------------------------------------------------------------------|
B |-------------------------------------------------------------------|
G |7/9-9-9-97-7/9--9-9-9-97-7-7-7/9-9-9-9/11-11-11-11/12-12/14-12/16|
D |-------------------------------------------------------------------|
A |-------------------------------------------------------------------|
E |-------------------------------------------------------------------|

E |-------------------------------------------------------------------|
B |-------------------------------------------------------------------|
G |1614-14-14-1412-12---1211-119-9/11-11----------12-11---9-7-9---|
D |---------------------------------------------12-14-----------------|
A |-------------------------------------------------------------------|
E |-------------------------------------------------------------------|

E |-------------------------------------------------------------------|
B |-------------------------------------------------------------------|
G |----------11h12-16-14-12-11----------------0-2---0-----------------|
D |-----12h14---------------------2-0-----2-4---------4-2---0-2-------|
A |12h14------------------------------4-5-----------------------------|
E |-------------------------------------------------------------------|

E |-------------------------------------------------------------------|
B |-------------------------------------------------------------------|
G |--------------11h12-12/16-14---12-11-------------------------------|
D |-----12h14-12--------------------------12-14-----------------------|
A |12h14--------------------------------------------------------------|
E |-------------------------------------------------------------------|

E |-------------------------------------------------------------------|
B |-------------------------------------------------------------------|
G |--------------------------11-x-11---11-11--11-11-12---12-12-12-----|
D |14---12-12-12-14---14-14-------------------------------------------|
A |--------------------------9--x-9----9--9---9--9--10---10-10-10-----|
E |12---10-10-10-12---12-12-------------------------------------------|

E |-------------------------------------------------------------------|
B |------------------------------15-15--------------------------------|
G |12-12-12/14-14-14---16-x-16----------------------------------------|
D |------------------------------12-12--------------------------------|
A |10-10-10/12-12-12---14-x-14----------------------------------------|
E |-------------------------------------------------------------------|

 








This is an awesome song and I'm surprised there's no tab up already.
E-mail comments, corrections, etc. to .
Get this song at amazon.com      Ebay     Ringtones Ringtones  


Learn to play: Songwriting, Piano, Harmonica, Guitar
Also available at Muzikum: 3 Doors Down - Life Of My Own lyrics

Related 3 Doors Down Chords

Here Without You chords
Away From The Sun chords
Going Down In Flames chords
Ticket To Heaven chords
By My Side chords
Duck And Run chords
Life Of My Own chords
The Road Im On chords
Not Enough chords
Be Like That (Version 2) chords
Heaven chords
Every Time You Go chords


Guitar Tabs









All tabs are property and copyright of their owners. All tabs provided for educational purposes only. Privacy Policy, DMCA