3 Doors Down

Fathers Son Tabs



More from 3 Doors Down

3 Doors Down Tabs
3 Doors Down Chords
3 Doors Down Bass
3 Doors Down Lyrics

3 Doors Down - Father's son

Tabbed by: -Fuxx-
E-Mail: blueblizzard@arcor.de

Tuning: EADgbe

I think this is really close to the song. Feel free to email me for any corrections.


Intro (1st time clean, 2nd time with distortion and wah, turn off the wah for the chords)

e|-------------------------0-----------------------------------------0-0-0---0-0-0--|
B|---3-----3---------6-------6-------1-----1---------3-----3---------3-3-1---1-1-3--|
G|-----0-----0---------0-------0-------0-----0---------0-----0-------0-0-0---0-0-0--|
D|-------5---------------8---------------3---------------5-----5-----5-5-3---3-3-5--|
A|-5-----------5s8-----------------3-----------3s5---------------5---5-5-3---3-3-5--|
E|----------------------------------------------------------------------------------|


Verse (0:24)

e|-------------------------0-----------------------------------------0-0-0---0-0-0--|
B|---3-----3---------6-------6-------1-----1---------3-----3---------3-3-1---1-1-3--|
G|-----0-----0-------0---------0-------0-----0---------0-----0-------0-0-0---0-0-0--|
D|-------5---------------8---------------3---------------5-----5-----5-5-3---3-3-5--|
A|-5-----------5s8-----------------3-----------3s5---------------5---5-5-3---3-3-5--|
E|----------------------------------------------------------------------------------|


e|-------------------------0-----------------------------------------0-0-0---0-0-0--|
B|---3-----3---------6-------6-------1-----1---------3-----3---------3-3-1---1-1-3--|
G|-----0-----0---------0-------0-------0-----0---------0-----0-------0-0-0---0-0-0--|
D|-------5---------------8---------------3---------------5-----5-----5-5-3---3-3-5--|
A|-5-----------5s8-----------------3-----------3s5---------------5---5-5-3---3-3-5--|
E|----------------------------------------------------------------------------------|


Verse 2x with Delay ca.600ms (0:47)

e|-------------------------0--------------------------------------------------------|
B|---3-----3---------6-------6-----------3p1---------3p0----------------------------|
G|-----0---------------0-------0-----0---------------------0------------------------|
D|----------------------------------------------------------------------------------|
A|-5-------------8-----------------3-------------5----------------------------------|
E|----------------------------------------------------------------------------------|

e|-----------------------------------------------0----------------------------------|
B|---3-----3-------6-----------------1-----1-----3---3-----3------------------------|
G|-----0---------0---------------------0-----0---0-----4----------------------------|
D|---------------------5---------------0-----0---5----------------------------------|
A|-5-------------------------------3-----3-------5----------------------------------|
E|----------------------------------------------------------------------------------|


Refrain 2x (1:11)
                 PM..|                                        PM..|
e|----------------------------------------------------------------------------------|
B|----------------------------------------------------------------------------------|
G|-x-x-x-x-0----------3---------3-3-3s5-5-5-5-3-------------------------------------|
D|-x-x-x-x-0-1----1-1-3---------3-3-3s5-5-5-5-3-5------5-5-3h5-5-5------------------|
A|-x-x-x-x-0-1----1-1-1---------1-1-1s3-3-3-3-3-5------5-5-3h5-5-5------------------|
E|-x-x-x-x-0----------1---------1-1-1s3-3-3-3-3-3------3-3-3---3-3------------------|

                                                  PM..|        PM..|
e|----------------------------------------------------------------------------------|
B|----------------------------------------------------------------------------------|
G|--------------------3---------3-----------------------------------------0---------|
D|---------1----1-0---3---------3--------3-------3-3-3-3------3-3-3-3---3-0---------|
A|---------1----1-0---1---------1--------3-------3-3-3-3------3-3-3-3---3-0---------|
E|----------------0---1---------1--------1-------1-1-1-1------1-1-1-1---1-0---------|


Intro 3x (1:36)


Refrain 2x (2:12)


Bridge 1 (with octaver effect) (2:36)

e|----------------------------------------------------------------------------------|
B|----------------------------------------------------------------------------------|
G|--------------------------------------------5--5----------------------------------|
D|--------------------------------------------5--5----------------------------------|
A|-------1-----s6~~------------1-----s6~~-----3--3----------------------------------|
E|-1h3-3---3-3-----------1h3-3---3-3----------3--3----------------------------------|


e|----------------------------------------------------------------------------------|
B|----------------------------------------------------------------------------------|
G|----------------------------------------------------------------------------------|
D|-----------------------------------3----------------------------------------------|
A|-------1-----s6~~------------1-----3----------------------------------------------|
E|-1h3-3---3-3-----------1h3-3---3-0-1----------------------------------------------|


Bridge 2 3x (2:48)

e|----------------------------------------------------------------------------------|
B|-----------------1------------------------3s4s3---0-------------------------------|
G|------0--------------0------------------0-------------0---------------------------|
D|--------0----------------0------------0-------------------------------------------|
A|------------1--------------1-3----3-----------------------------------------------|
E|-3--------3-----------------------------------3-----------------------------------|

e|------------------------------------------3---------------------------------------|
B|---------------1--------------------------3---------------------------------------|
G|------0----------------------------0------0---------------------------------------|
D|--------0------------------------3---3----0---------------------------------------|
A|------------1--------1s3-3-----3----------2---------------------------------------|
E|-123------3----------------3-1---------0--3---------------------------------------|


Refrain 2x (3:24)


Bridge 1 (3:49)

----------------------------------------------------------------------------
			     Father's Son - 3 Doors Down
----------------------------------------------------------------------------
Tabbed by: [Sean_Mac]	
Email: 

Tuning: Standard (EADGBe)

	intro: Guitar 1 - 1x Clean, 1x distored

e|-------------------------------------------------------------------------|
B|-------------------------------------------------------------------------|
G|----7-----7------7--/--10--10------9---------5-----5------5--/--7--------|
D|------7-----7----7--/--10-----10-----10--------5-----5----5--/--7--------|
A|--5-----5-----5--5--/--8---------8------8--3-----3-----3--3--/--5--------|
E|-------------------------------------------------------------------------|

e|-------------------------------------------------------------------------|
B|-------------------------------------------------------------------------|
G|----7-----7------7--7-7--5-----5--5-5--7---------------------------------|
D|------7-----7----7--7-7--5-----5--5-5--7---------------------------------|
A|--5-----5-----5--5--5-5--3-----3--3-3--5---------------------------------|
E|-------------------------------------------------------------------------|

	Guitar 2 - 2x distored
	
e|-------------------------------------------------------------------------|
B|-------------------------------------------------------------------------|
G|--7-7-7-10-10-10-10-10-5-5-5-7-7-7-7-7--7--7-7--5-----5--5-5--7----------|
D|--7-7-7-10-10-10-10-10-5-5-5-7-7-7-7-7--7--7-7--5-----5--5-5--7----------|
A|--5-5-5-8--8--8--8--8--3-3-3-5-5-5-5-5--5--5-5--3-----3--3-3--5----------|
E|-------------------------------------------------------------------------|

	verse:

e|-------------------------------------------------------------------------|
B|-------------------------------------------------------------------------|
G|----7-----7------7--/--10--10------9---------5-----5------5--/--7--------|
D|------7-----7----7--/--10-----10-----10--------5-----5----5--/--7--------|
A|--5-----5-----5--5--/--8---------8------8--3-----3-----3--3--/--5--------|
E|-------------------------------------------------------------------------|

e|-------------------------------------------------------------------------|
B|-------------------------------------------------------------------------|
G|----7-----7------7--7-7--5-----5--5-5--7---------------------------------|
D|------7-----7----7--7-7--5-----5--5-5--7---------------------------------|
A|--5-----5-----5--5--5-5--3-----3--3-3--5---------------------------------|
E|-------------------------------------------------------------------------|

	CHORUS:

e|-------------------------------------------------------------------------|
B|-------------------------------------------------------------------------|
G|--9-9-9-----------5-5-5-----------9-9-9-----------5-5-5-5-5-5-5-5--------|
D|--9-9-9-9-9-9-9-9-5-5-5-5-5-5-5-5-9-9-9-9-9-9-9-9-5-5-5-5-5-5-5-5--------|
A|--7-7-7-9-9-9-9-9-3-3-3-5-5-5-5-5-7-7-7-9-9-9-9-9-3-3-3-3-3-3-3-3--------|
E|--------7-7-7-7-7-------3-3-3-3-3-------7-7-7-7-7------------------------|

	Pre - Bridge:  





e|-------------------------------------------------------------------------|
B|-------------------------------------------------------------------------|
G|----------8~~---------8~~---------8~~------------------------------------|
D|--5--5-5--8~~-5--5-5--8~~-5--5-5--8~~--5--5-5--3--/--5-------------------|
A|--5--5-5--6~~-5--5-5--6~~-5--5-5--6~~--5--5-5--3--/--5-------------------|
E|--3--3-3------3--3-3------3--3-3-------3--3-3--1--/--3-------------------|

	BRIDGE:

e|-----------------------------------------------------------------------|
B|-----------------------------------------------------------------------|
G|------7----9-8--------5-----5-----------7------9-----------------------|
D|----7----------7----5---------5-------7--------7---------------5-5-----|
A|--5------7--------3-------5----------------7-----------------5---5-----|
E|--------------------------------0-2-3------------6/8-8-8-6-3-----3-0-2-|3|


| /  slide up
|   slide down
| h  hammer-on
| p  pull-off
| ~  vibrato
| +  harmonic
| x  Mute note
============================================================================
Get this song at amazon.com      Ebay     Ringtones Ringtones  


Learn to play: Songwriting, Piano, Harmonica, Guitar
Also available at Muzikum: 3 Doors Down - Father's Son lyrics

Related 3 Doors Down Tabs

Kryptonite Bass tabs
Love Me When Im Gone tabs
Ticket To Heaven tabs
Let Me Go tabs
Later tabs
Kryptonite (Version 2) tabs
Loser5 tabs
Better Life tabs
Be Like That2 tabs
Its Not Me tabs
Duck & Run tabs
Running Out Of Days tabs
Sarah Yellin tabs
Away From The Sun tabs
Be Like That6 tabs
Smack tabs
By Myside tabs
Going Down In Flames tabs
Ill Give You Anything tabs
The Road I'm On tabs


Guitar Tabs









All tabs are property and copyright of their owners. All tabs provided for educational purposes only. Privacy Policy, DMCA