3 Doors Down

Duck And Run5 Tabs



More from 3 Doors Down

3 Doors Down Tabs
3 Doors Down Chords
3 Doors Down Bass
3 Doors Down Lyrics

Author/Artist: 3 Doors Down

Title: Duck And Run
Album: The Better Life
Transcribed by: Sheldon Cowart
Email: sdc_BIG_60@excite.com

here is how the song really goes

------------------------------------------------------------------------------
------------------------------------------------------------------------------
-9-9-9-9-9---12-12-12---11---9---5-5-5-5-/-4-4-4-4-/-5-5-5-5----7-------------
-x-x-x-x-x----x--x--x----x---x---x-x-x-x-/-x-x-x-x-/-x-x-x-x----x-------------
-7-7-7-7-7---10-10-10----9---7---3-3-3-3-/-2-2-2-2-/-3-3-3-3----5-------------
------------------------------------------------------------------------------


------------------------------------------------------------------------------
------------------------------------------------------------------------------
-9-9-9-9-9---12-12-12---11---14---5-5-5-5-/-4-4-4-4-/-5-5-5-5----7------------
-x-x-x-x-x----x--x--x----x----x---x-x-x-x-/-x-x-x-x-/-x-x-x-x----x------------
-7-7-7-7-7---10-10-10----9---12---3-3-3-3-/-2-2-2-2-/-3-3-3-3----5------------
------------------------------------------------------------------------------

verse                                                                        

------------------------------------------------------------------------------
------------------------------------------------------------------------------
------------------------------------------------------------------------------
-0h2-2-2-2-2-2-2---------------0h2-2-2-2-2-2-2--------------------------------
-------------------3-2-0-2/3---------------------3-2-0-2/32-0----------------
------------------------------------------------------------------------------

chorus                                                                      

------------------------------------------------------------------------------
------------------------------------------------------------------------------
-9--9--12-12--11--9-----------------------------------------------------------
-9--9--12-12--11--9--10--10--9--9--10--12-------------------------------------
-7--7--10-10---9--7--10--10--9--9--10--12-------------------------------------
----------------------8---8--7--7---8--10-------------------------------------


------------------------------------------------------------------------------
------------------------------------------------------------------------------
-9--9--12-12--11--14----------------------------------------------------------
-9--9--12-12--11--14--10--10--9--9--10--12------------------------------------
-7--7--10-10---9--12--10--10--9--9--10--12------------------------------------
-----------------------8---8--7--7---8--10------------------------------------

bridge                                                                      

------------------------------------------------------------------------------
------------------------------------------------------------------------------
-9-----------------------9----------------------------------------------------
-9---9---10---7---9-10---9---9---10--7---9/1097-----------------------------
-7---9---10---7---9-10---7---9---10--7---9/1097-----------------------------
-----7----8---5---7--8-------7----8--5---7/-875-----------------------------


------------------------------------------------------------------------------
------------------------------------------------------------------------------
-9-----------------------9----------------------------------------------------
-9---9---10---7---9-10---9---9---10--10-10-10-10------------------------------
-7---9---10---7---9-10---7---9---10--10-10-10-10------------------------------
-----7----8---5---7--8-------7----8---8--8--8--8------------------------------

verse                                                                        

------------------------------------------------------------------------------
------------------------------------------------------------------------------
------------------------------------------------------------------------------
-0h2-2-2-2-2-2-2---------------0h2-2-2-2-2-2-2--------------------------------
-------------------3-2-0-2/3---------------------3-2-0-2/32-0----------------
------------------------------------------------------------------------------

chorus x 2                                                                  

------------------------------------------------------------------------------
------------------------------------------------------------------------------
-9--9--12-12-11---9-----------------------------------------------------------
-9--9--12-12-11---9---10--10--9--9--10--12------------------------------------
-7--7--10-10--9---7---10--10--9--9--10--12------------------------------------
-----------------------8---8--7--7---8--10------------------------------------


------------------------------------------------------------------------------
------------------------------------------------------------------------------
-9--9--12-12-11---14----------------------------------------------------------
-9--9--12-12-11---14---10--10--9--9--10--12-----------------------------------
-7--7--10-10--9---12---10--10--9--9--10--12-----------------------------------
------------------------8---8--7--7---8--10-----------------------------------

guitar part before solo x 2                                                  


------------------------------------------------------------------------------
------------------------------------------------------------------------------
-9-9-9-9-9---12-11---14-14-14-------------------------------------------------
-9-9-9-9-9---12-11---14-14-14-------------------------------------------------
-7-7-7-7-7---10--9---12-12-12-------------------------------------------------
------------------------------------------------------------------------------
                                                                              

------------------------------------------------------------------------------
------------------------------------------------------------------------------
-9-9-9-9-9--------------------------------------------------------------------
-9-9-9-9-9---10-9-7-7-7---9/1097--------------------------------------------
-7-7-7-7-7---10-9-7-7-7---9/1097--------------------------------------------
--------------8-7-5-5-5---7/-875--------------------------------------------

solo                                                                        

------------------------------------------------------------------------------
------------------------------------------------------------------------------
------------------------------------------------------------------------------
-----5--4-5-4--------5--4-5-4--7-5----5--4-5-4--------------------------------
-7------------5--7------------------------------5-7---------------------------
------------------------------------------------------------------------------
                                                                              

------------------------------------------------------------------------------
-----8--7-8-7--------8--7-8-7--10-8----8--7-8-7-------------------------------
-9------------7--9-------------------------------7-9--------------------------
------------------------------------------------------------------------------
------------------------------------------------------------------------------
------------------------------------------------------------------------------

verse                                                                        

------------------------------------------------------------------------------
------------------------------------------------------------------------------
------------------------------------------------------------------------------
-0h2-2-2-2-2-2-2---------------0h2-2-2-2-2-2-2--------------------------------
-------------------3-2-0-2/3---------------------3-2-0-2/32-0----------------
------------------------------------------------------------------------------

chorus x 4                                                                  

------------------------------------------------------------------------------
------------------------------------------------------------------------------
-9--9--12-12--11--9-----------------------------------------------------------
-9--9--12-12--11--9---10--10---9--9--10--12-----------------------------------
-7--7--10-10---9--7---10--10---9--9--10--12-----------------------------------
-----------------------8---8---7--7---8--10-----------------------------------
                                                                              

------------------------------------------------------------------------------
------------------------------------------------------------------------------
-9--9--12-12--11--14----------------------------------------------------------
-9--9--12-12--11--14---10--10--9--9--10--12-----------------------------------
-7--7--10-10---9--12---10--10--9--9--10--12-----------------------------------
------------------------8---8--7--7---8--10-----------------------------------

bridge                                                                      

------------------------------------------------------------------------------
------------------------------------------------------------------------------
-9-----------------------9----------------------------------------------------
-9---9---10---7---9-10---9---9---10--7---9/1097-----------------------------
-7---9---10---7---9-10---7---9---10--7---9/1097-----------------------------
-----7----8---5---7--8-------7----8--5---7/-875-----------------------------


------------------------------------------------------------------------------
------------------------------------------------------------------------------
-9-----------------------9----------------------------------------------------
-9---9---10---7---9-10---9---9---10-------------------------------------------
-7---9---10---7---9-10---7---9---10-------------------------------------------
-----7----8---5---7--8-------7----8-------------------------------------------

and thats that.  enjoy!
Get this song at amazon.com      Ebay     Ringtones Ringtones  


Learn to play: Songwriting, Piano, Harmonica, Guitar
More 3 Doors Down lyrics available at Muzikum

Related 3 Doors Down Tabs

Be Somebody tabs
Going Down In Flames tabs
Citizen Soldier tabs
Be Like Thaat tabs
This Time tabs
Dangerous Game tabs
The Road Im On tabs
Ill Give You Anything tabs
Duck And Run Intro 2 tabs
Be Like That (acoustic) tabs
Duck And Run Intro tabs
Be Like That3 tabs
By My Side Intro tabs
Be Like That Ver2 tabs
Here By My (acoustic) tabs
Let Me Go tabs
Here Without You tabs
Love Me When Im Gone tabs
Be Like That2 tabs
Not Enough tabs


Guitar Tabs









All tabs are property and copyright of their owners. All tabs provided for educational purposes only. Privacy Policy, DMCA