3 Doors Down

Duck And Run Chords, Tabs



More from 3 Doors Down

3 Doors Down Tabs
3 Doors Down Chords
3 Doors Down Bass
3 Doors Down Lyrics

#-----------------------------PLEASE NOTE-------------------------------------#
#This OLGA file is the author's own work and represents their interpretation  #
#of the song. You may only use this file for private study, scholarship, or   #
#research. Remember to view this file in Courier, or some other monospaced    #
#font. See http://www.olga.net/faq/ for more information.                     #
#-----------------------------------------------------------------------------#



Subject: 3/3_doors_down/duck_and_run.tab

Song:    Duck and Run
Artist:  Three Doors Down
Tabbed by: Caper aka rattice (rattice@hotmail.com)

Intro (Play Twice):

e ----------------------------------------------------
b ----------------------------------------------------
g -9--9-9-9--x-12-12-x-11-9--x-5--5-5-5-x-4-4-x-5-x-7-
d -0--0-0-0--0--0--0-0--0-0--0-0--0-0-0-0-0-0-0-0-0-0-
a ----------------------------------------------------
e ----------------------------------------------------
   v  v ^ v  v  ^  ^ v  ^ ^  ^ v  v ^ v v ^ ^ v ^ ^ v

e -----------------------------------------------------
b -----------------------------------------------------
g -9--9-9-9--x-12-12-x-11-x-14--5--5-5-5-x-4-4-x-5-x-7-
d -0--0-0-0--0--0--0-0--0-0--0--0--0-0-0-0-0-0-0-0-0-0-
a -----------------------------------------------------
e -----------------------------------------------------
   v  v ^ v  v  ^  ^ v  ^ ^  ^  v  v ^ v v ^ ^ v ^ ^ v

v   means DOWN stroke.
^   means UP-stroke on the strings.

Verse:

e ------------------------------------------------
b ------------------------------------------------
g ------------------------------------------------
d -0h2-2-2-2-2------------------------------------
a --------------3-2--0-2-3------------------------
e ------------------------------------------------

e ------------------------------------------------
b ------------------------------------------------
g ------------------------------------------------
d -0h2-2-2-2-2------------------------------------
a --------------3-2-0-2h3p2p0---------------------
e ------------------------------------------------

 








Chorus (same idea as intro, but full power chords instead):

E       G      F# E  C      B     C D
e ------------------------------------------------
b ------------------------------------------------
g -9-999--12-12-x-11-9--5-555--4-4-x-5-7----------
d -9-999--12-12-x-11-9--5-555--4-4-x-5-7----------
a -7-777--10-10-x--9-7--3-333--2-2-x-3-5----------
e ------------------------------------------------
   E      G       F# A   C      B     C D
e ------------------------------------------------
b ------------------------------------------------
g -9-999--12-12-x-11-14--5-555--4-4-x-5-7---------
d -9-999--12-12-x-11-14--5-555--4-4-x-5-7---------
a -7-777--10-10-x--9-12--3-333--2-2-x-3-5---------
e ------------------------------------------------

Post Chorus 1:

e -------------------|-----------------------------
b -------------------|-----------------------------
g -------------------|-----------------------------
d --2----------------|-2---------------------------
a -----2--3--0-0-2-3-|----2--3-0-x-2h3p2p0---------
e -------------------|-----------------------------

e -------------------|-----------------------------
b -------------------|-----------------------------
g -------------------|---------5-5-5\-------------
d --2----------------|-2-------5-5-5\-------------
a -----2--3--0-0-2-3-|----2--3-3-3-3\-------------
e -------------------|-----------------------------

Post Chorus 2:

E        G  F#  A
e ------------------------------------------------
b ------------------------------------------------
g -9-99-9---12-11--14-14-14-----------------------
d -9-99-7---12-11--14-14-14-----------------------
a -7-77-7---10--9--12-12-12-----------------------
e ------------------------------------------------
   E       C B A B
e ------------------------------------------------
b ------------------------------------------------
g -9-99-9--5-4-2-4--------------------------------
d -9-99-9--5-4-2-4--------------------------------
a -7-77-7--3-2-0-2-2h3p2p0------------------------
e ------------------------------------------------

SOLO:
e --------------------------------------------------------- r
b --------8-7-8-7----------8-7-8-7-10-8^^^--8-7-8-7-------- e
g ---9^^----------7-7/9^^---------------------------7-7/9^^ p
d --------------------------------------------------------- e
a --------------------------------------------------------- a
e --------------------------------------------------------- t

Then repeat chorus over and over...Then use Post chorus 1 for outro.
Thats most of it. Hope you enjoy. KISS rule!!

 








Get this song at amazon.com      Ebay     Ringtones Ringtones  


Learn to play: Songwriting, Piano, Harmonica, Guitar
Also available at Muzikum: 3 Doors Down - Duck And Run lyrics

Related 3 Doors Down Chords

Here Without You chords
Away From The Sun chords
Going Down In Flames chords
Ticket To Heaven chords
By My Side chords
Duck And Run chords
Life Of My Own chords
The Road Im On chords
Not Enough chords
Be Like That (Version 2) chords
Heaven chords
Every Time You Go chords


Guitar Tabs









All tabs are property and copyright of their owners. All tabs provided for educational purposes only. Privacy Policy, DMCA