3 Doors Down

By My Side Tabs



More from 3 Doors Down

3 Doors Down Tabs
3 Doors Down Chords
3 Doors Down Bass
3 Doors Down Lyrics

Artist - 3 Doors Down

Track number 12 from Seventeen days

Tabbed By: Mayur Talekar



Tunning: standard





Intro (finger picking)

G* Csus

e|---------------|---------------|

B|--0-----0------|--1-----0------|

G|----0-----0----|----0-----0----| x2

D|------------0--|------0-----2--|

A|------2--------|--3------------|

E|--3------------|---------------|



Verse 1 (finger picking)



G* Csus G* Csus

I hope you're doing fine out without me

Am C G* Csus

'Cause I'm not doing so good without you

G* Csus G* Csus

The things I thought you'd never know about me

Am C G* Csus

Were the things I guess you always understood



G* Csus G* Csus

e|----------------|----------------|----------------|---------------|

B|---0-----0------|---1-----0------|---0-----0------|--1-----0------|

G|-----0-----0----|-----0-----0----|-----0-----0----|----0-----0----|

D|-------------0--|-------0-----2--|-------------0--|------0-----2--|

A|-------2--------|---3------------|-------2--------|--3------------|

E|---3------------|----------------|---3------------|---------------|\

\

Am C G* Csus | x2

e|-----------------|---------------||---------------|---------------| /

B|--0h1-----1------|--1-----1------||--0-----0------|--1-----0------|/

G|--2---2-----2----|----0-----0----||----0-----0----|----0-----0----|

D|--------2-----2--|------2-----2--||------------0--|------0-----2--|

A|--0--------------|--3------------||------2--------|--3------------|

E|-----------------|---------------||--3------------|---------------|





Pre Chorus 1 (finger picking)

Am C

So how could I have been so blind for all these years?

Am C

Guess I only see the truth through all this fear,And living without you...



Am C

e|----------------------------------|------------------------------|

B|--0h1-----1--------1-------1------|--1-----1--------1-----1------|

G|--2---2-----2------2---2-----2----|----0-----0--------0-----0----|

D|--------2-----2----------2-----2--|------2-----2--------2-----2--|

A|--0----------------0--------------|--3--------------3------------|

E|----------------------------------|------------------------------|



Am C

e|----------------------------------|-------------------------------|

B|--0h1-----1--------1-------1------|--1-----1----------------0h1---|

G|--2---2-----2------2---2-----2----|----0-----0------------0-------|

D|--------2-----2----------2-----2--|------2-----2--------2---------|

A|--0----------------0--------------|--3------------0-2-3-----------|

E|----------------------------------|-------------------------------|





Chorus (stuming chords)



G Bm

And everything I had in this world

C Am

And all that I'll ever be

C Am

It could all fall down around me.

C G Chorus fill

Just as long as I have you,Right here by me.



Chrous fill

e|--19-17-14-----------|

B|-----------15--------|

G|--------------14-12--| x2

D|---------------------|

A|---------------------|

E|---------------------|



Verse 2 (same as verse 1) (finger picking)



I can't take another day without you

'Cause baby, I could never make it on my own

I've been waiting so long, just to hold you

And be back in your arms where I belong



G* Csus G* Csus

e|----------------|----------------|----------------|---------------|

B|---0-----0------|---1-----0------|---0-----0------|--1-----0------|

G|-----0-----0----|-----0-----0----|-----0-----0----|----0-----0----|

D|-------------0--|-------0-----2--|-------------0--|------0-----2--|

A|-------2--------|---3------------|-------2--------|--3------------|

E|---3------------|----------------|---3------------|---------------|\

\

Am C G* Csus | x2

e|-----------------|---------------||---------------|---------------| /

B|--0h1-----1------|--1-----1------||--0-----0------|--1-----0------|/

G|--2---2-----2----|----0-----0----||----0-----0----|----0-----0----|

D|--------2-----2--|------2-----2--||------------0--|------0-----2--|

A|--0--------------|--3------------||------2--------|--3------------|

E|-----------------|---------------||--3------------|---------------|



Pre Chorus 2 (same as pre chorus 1) (finger picking)



Sorry I can't always find the words to say

But everything I've ever know gets swept away Inside of your love...

Am C

e|----------------------------------|------------------------------|

B|--0h1-----1--------1-------1------|--1-----1--------1-----1------|

G|--2---2-----2------2---2-----2----|----0-----0--------0-----0----|

D|--------2-----2----------2-----2--|------2-----2--------2-----2--|

A|--0----------------0--------------|--3--------------3------------|

E|----------------------------------|------------------------------|



Am C

e|----------------------------------|-------------------------------|

B|--0h1-----1--------1-------1------|--1-----1----------------0h1---|

G|--2---2-----2------2---2-----2----|----0-----0------------0-------|

D|--------2-----2----------2-----2--|------2-----2--------2---------|

A|--0----------------0--------------|--3------------0-2-3-----------|

E|----------------------------------|-------------------------------|





Chorus (sturming chords)



G Bm

And everything I had in this world

C Am

And all that I'll ever be

C Am

It could all fall down around me.

C G Chorus fill

Just as long as I have you,Right here by me.



Chrous fill

e|--19-17-14-----------|

B|-----------15--------|

G|--------------14-12--| x2

D|---------------------|

A|---------------------|

E|---------------------|



Bridge (sturming chords)



Em C

As the days grow long I see

Em C

That time is standing still for me

Am

When you're not here



Pre Chorus 3(same as pre chorus 2) (finger picking or picking both ways works ok)



Sorry I can't always find the words to say

But everything I've ever know gets swept away Inside of your love...

Am C

e|----------------------------------|------------------------------|

B|--0h1-----1--------1-------1------|--1-----1--------1-----1------|

G|--2---2-----2------2---2-----2----|----0-----0--------0-----0----|

D|--------2-----2----------2-----2--|------2-----2--------2-----2--|

A|--0----------------0--------------|--3--------------3------------|

E|----------------------------------|------------------------------|



Am C

e|----------------------------------|-------------------------------|

B|--0h1-----1--------1-------1------|--1-----1----------------0h1---|

G|--2---2-----2------2---2-----2----|----0-----0------------0-------|

D|--------2-----2----------2-----2--|------2-----2--------2---------|

A|--0----------------0--------------|--3------------0-2-3-----------|

E|----------------------------------|-------------------------------|





Chorus (sturming chords)





G Bm

And everything I had in this world

C Am

And all that I'll ever be

C Am

It could all fall down around me.

C G Chorus fill

Just as long as I have you,Right here by me.



Chrous fill

e|--19-17-14-----------|

B|-----------15--------|

G|--------------14-12--| x1

D|---------------------|

A|---------------------|

E|---------------------|



G Bm

And everything I had in this world

C Am

And all that I'll ever be

C Am

It could all fall down around me.

C G [The song ends on G)

Just as long as I have you,Right here by me.

Get this song at amazon.com      Ebay     Ringtones Ringtones  


Learn to play: Songwriting, Piano, Harmonica, Guitar
Also available at Muzikum: 3 Doors Down - By My Side lyrics

Related 3 Doors Down Tabs

Be Somebody tabs
Loser tabs
Sarah Yellin tabs
Be Like That (acoustic) tabs
Its Not Me tabs
So I Need You (acoustic) tabs
By My Side Intro tabs
By My Side tabs
This Time tabs
Duck And Run5 tabs
Duck And Run2 tabs
Real Life tabs
Kryptonite tabs
Behind Those Eyes tabs
The Road I'm On tabs
Not Enough tabs
Sarah Yelling tabs
Love Me When Im Gone tabs
Be Like Thaat tabs
Changes tabs


Guitar Tabs









All tabs are property and copyright of their owners. All tabs provided for educational purposes only. Privacy Policy, DMCA