3 Doors Down

Betterlife Tabs



More from 3 Doors Down

3 Doors Down Tabs
3 Doors Down Chords
3 Doors Down Bass
3 Doors Down Lyrics

3 Doors Down - Better Life
Tabbed By: Sean Pincus - E-mail AF_band@hotmail.com

"DON'T COMPLAIN CAUSE I DIDN'T SEE YOU WRITE IT"

Question, Comments, Concerns - E-mail Me


Notation Guide

P  - Pull-Off
H  - Hammer-On
x  - Palm Mute
~~ - Vibrato


|-------------------------|
|-------------------------|
|-------------------------|
|---0--4-P-0--x--4--------|  (2x)
|---0--4-^-0--x--4--------|
|---0--2---0--x--2--------|

|-------------------------------------|
|-------------------------------------|
|---4---------------------------------|
|---4--4-P-0--x--4----0--4-P-0--x--4--|
|---2--4-^-0--x--4----0--4-^-0--x--4--|
|------2---0--x--2----0--2---0--x--2--|

|-------------------------------------|
|-------------------------------------|
|---2---4-P-0--x--4-------------------|
        |---2---4-^-0--x--4---0--4-P-0--x--4--|
|---0---2---0--x--2---0--4-^-0--x--4--|
|---------------------0--2---0--x--2--|

|-------------------------------------------------------|
|-------------------------------------------------------|
|---------------------2--4-P-0--x--4--------------------|
        |---0--4-P-0--x--4----2--4-^-0--x--4----0--4-P-0--x--4--|
        |---0--4-^-0--x--4----0--2---0--x--2----0--4-^-0--x--4--|
|---0--2---0--x--2----------------------0--2---0--x--2--|

|-------------------------------------------------------|
|-------------------------------------------------------|
|------------------H--------------------------H---------|
|-----H----------7-^-9-9~~------H-----------7-^-9-------|  (Repeat Several
Times)
|---7-^-9-9-9-9---------------7-^-9-9-9-9---------7-----|
|-------------------------------------------------------|
Get this song at amazon.com      Ebay     Ringtones Ringtones  


Learn to play: Songwriting, Piano, Harmonica, Guitar
Also available at Muzikum: 3 Doors Down - Betterlife lyrics

Related 3 Doors Down Tabs

Kryptonite tabs
My World tabs
Duck And Run tabs
Sarah Yelling tabs
By My Side tabs
By My Side Intro tabs
Not Enough tabs
Better Life tabs
Ticket To Heaven tabs
So I Need You tabs
Right Where I Belong tabs
Love Me When Im Gone tabs
The Road I'm On tabs
Its Not Me tabs
Down Later tabs
Be Somebody tabs
Fathers Son tabs
Here By My (acoustic) tabs
Loser5 tabs
Landing In London tabs


Guitar Tabs









All tabs are property and copyright of their owners. All tabs provided for educational purposes only. Privacy Policy, DMCA