3 Doors Down

Behind Those Eyes Tabs



More from 3 Doors Down

3 Doors Down Tabs
3 Doors Down Chords
3 Doors Down Bass
3 Doors Down Lyrics

-------------------------------------------------------------------------------

Behind Those Eyes - 3 Doors Down

-------------------------------------------------------------------------------

Tabbed by: Jhon_05

Email: webmaster at tabs-database.com.com



Tuning: EADGBe



INTRO:

e|----------------------------------------------------------------------|

B|---3-----1----1h3---0h1-----------------------------------------------|

G|-----2------------------2------------0-------------0------------------|

D|-0-----0----0-----0-------3--3p0-0h2---2-------0h2---2----------0-----|

A|-----------------------------------------3--3----------3--3-0h2---2---|

E|--------------------------------------------------------------------3-|



e|-----------------------0-1------------------------------------|

B|---3-----1----1h3----3------3-0-----1-------------------------|

G|-----2--------------------------0h2---2---2p0-----------------|

D|-0-----0----0-----0---------------------3-----3/5~---2h3p2----|

A|-----------------------------------------------------------3--|

E|--------------------------------------------------------------|Added by tabs-database.com and our distinguished partners
Get this song at amazon.com      Ebay     Ringtones Ringtones  


Learn to play: Songwriting, Piano, Harmonica, Guitar
Also available at Muzikum: 3 Doors Down - Behind Those Eyes lyrics

Related 3 Doors Down Tabs

Here By Me tabs
Away From The Sun tabs
Changes tabs
Citizen Soldier tabs
Loser5 tabs
My World tabs
Life Of My Own tabs
Be Like Thaat tabs
By My Side2 tabs
By My Side Intro tabs
Right Where I Belong tabs
Not Enough tabs
So I Need You tabs
Duck And Run tabs
Its Not Me tabs
Be Like That (acoustic) tabs
Down Poisen tabs
Kyptonite tabs
Here By My (acoustic) tabs
Duck And Run Intro 2 tabs


Guitar Tabs









All tabs are property and copyright of their owners. All tabs provided for educational purposes only. Privacy Policy, DMCA